  0
SECTION
  2
HEADER
  9
$ACADVER
  1
AC1014
  9
$ACADMAINTVER
 70
     9
  9
$DWGCODEPAGE
  3
ANSI_932
  9
$INSBASE
 10
0.0
 20
0.0
 30
0.0
  9
$EXTMIN
 10
-1239.092134357415
 20
-867.249715112202
 30
0.0
  9
$EXTMAX
 10
693.1842687148292
 20
471.4994302244039
 30
0.0
  9
$LIMMIN
 10
-74.25
 20
-52.5
  9
$LIMMAX
 10
74.25
 20
52.5
  9
$ORTHOMODE
 70
     0
  9
$REGENMODE
 70
     1
  9
$FILLMODE
 70
     1
  9
$QTEXTMODE
 70
     0
  9
$MIRRTEXT
 70
     1
  9
$DRAGMODE
 70
     2
  9
$LTSCALE
 40
0.5
  9
$OSMODE
 70
    37
  9
$ATTMODE
 70
     1
  9
$TEXTSIZE
 40
0.2
  9
$TRACEWID
 40
0.05
  9
$TEXTSTYLE
  7
STANDARD
  9
$CLAYER
  8
0
  9
$CELTYPE
  6
BYLAYER
  9
$CECOLOR
 62
   256
  9
$CELTSCALE
 40
1.0
  9
$DELOBJ
 70
     1
  9
$DISPSILH
 70
     0
  9
$DIMSCALE
 40
1.0
  9
$DIMASZ
 40
1.25
  9
$DIMEXO
 40
0.0625
  9
$DIMDLI
 40
0.38
  9
$DIMRND
 40
0.0
  9
$DIMDLE
 40
0.0
  9
$DIMEXE
 40
0.18
  9
$DIMTP
 40
0.0
  9
$DIMTM
 40
0.0
  9
$DIMTXT
 40
0.18
  9
$DIMCEN
 40
0.09
  9
$DIMTSZ
 40
0.0
  9
$DIMTOL
 70
     0
  9
$DIMLIM
 70
     0
  9
$DIMTIH
 70
     1
  9
$DIMTOH
 70
     1
  9
$DIMSE1
 70
     0
  9
$DIMSE2
 70
     0
  9
$DIMTAD
 70
     3
  9
$DIMZIN
 70
     0
  9
$DIMBLK
  1

  9
$DIMASO
 70
     1
  9
$DIMSHO
 70
     1
  9
$DIMPOST
  1

  9
$DIMAPOST
  1

  9
$DIMALT
 70
     0
  9
$DIMALTD
 70
     2
  9
$DIMALTF
 40
25.4
  9
$DIMLFAC
 40
1.0
  9
$DIMTOFL
 70
     0
  9
$DIMTVP
 40
0.0
  9
$DIMTIX
 70
     0
  9
$DIMSOXD
 70
     0
  9
$DIMSAH
 70
     0
  9
$DIMBLK1
  1

  9
$DIMBLK2
  1

  9
$DIMSTYLE
  2
STANDARD
  9
$DIMCLRD
 70
     0
  9
$DIMCLRE
 70
     0
  9
$DIMCLRT
 70
     0
  9
$DIMTFAC
 40
1.0
  9
$DIMGAP
 40
0.09
  9
$DIMJUST
 70
     0
  9
$DIMSD1
 70
     0
  9
$DIMSD2
 70
     0
  9
$DIMTOLJ
 70
     1
  9
$DIMTZIN
 70
     0
  9
$DIMALTZ
 70
     0
  9
$DIMALTTZ
 70
     0
  9
$DIMFIT
 70
     3
  9
$DIMUPT
 70
     0
  9
$DIMUNIT
 70
     2
  9
$DIMDEC
 70
     4
  9
$DIMTDEC
 70
     4
  9
$DIMALTU
 70
     2
  9
$DIMALTTD
 70
     2
  9
$DIMTXSTY
  7
STANDARD
  9
$DIMAUNIT
 70
     0
  9
$LUNITS
 70
     2
  9
$LUPREC
 70
     4
  9
$SKETCHINC
 40
0.1
  9
$FILLETRAD
 40
0.5
  9
$AUNITS
 70
     0
  9
$AUPREC
 70
     0
  9
$MENU
  1
.
  9
$ELEVATION
 40
0.0
  9
$PELEVATION
 40
0.0
  9
$THICKNESS
 40
0.0
  9
$LIMCHECK
 70
     0
  9
$CHAMFERA
 40
0.5
  9
$CHAMFERB
 40
0.5
  9
$CHAMFERC
 40
1.0
  9
$CHAMFERD
 40
0.0
  9
$SKPOLY
 70
     0
  9
$TDCREATE
 40
2456337.411523924
  9
$TDUPDATE
 40
2456337.411523935
  9
$TDINDWG
 40
0.0000000116
  9
$TDUSRTIMER
 40
0.0000000116
  9
$USRTIMER
 70
     1
  9
$ANGBASE
 50
0.0
  9
$ANGDIR
 70
     0
  9
$PDMODE
 70
     0
  9
$PDSIZE
 40
1.0
  9
$PLINEWID
 40
0.0
  9
$COORDS
 70
     1
  9
$SPLFRAME
 70
     0
  9
$SPLINETYPE
 70
     6
  9
$SPLINESEGS
 70
     8
  9
$ATTDIA
 70
     0
  9
$ATTREQ
 70
     1
  9
$HANDLING
 70
     1
  9
$HANDSEED
  5
152
  9
$SURFTAB1
 70
     6
  9
$SURFTAB2
 70
     6
  9
$SURFTYPE
 70
     6
  9
$SURFU
 70
     6
  9
$SURFV
 70
     6
  9
$UCSNAME
  2

  9
$UCSORG
 10
0.0
 20
0.0
 30
0.0
  9
$UCSXDIR
 10
1.0
 20
0.0
 30
0.0
  9
$UCSYDIR
 10
0.0
 20
1.0
 30
0.0
  9
$PUCSNAME
  2

  9
$PUCSORG
 10
0.0
 20
0.0
 30
0.0
  9
$PUCSXDIR
 10
1.0
 20
0.0
 30
0.0
  9
$PUCSYDIR
 10
0.0
 20
1.0
 30
0.0
  9
$USERI1
 70
     0
  9
$USERI2
 70
     0
  9
$USERI3
 70
     0
  9
$USERI4
 70
     0
  9
$USERI5
 70
     0
  9
$USERR1
 40
0.0
  9
$USERR2
 40
0.0
  9
$USERR3
 40
0.0
  9
$USERR4
 40
0.0
  9
$USERR5
 40
0.0
  9
$WORLDVIEW
 70
     1
  9
$SHADEDGE
 70
     3
  9
$SHADEDIF
 70
    70
  9
$TILEMODE
 70
     1
  9
$MAXACTVP
 70
    64
  9
$PINSBASE
 10
0.0
 20
0.0
 30
0.0
  9
$PLIMCHECK
 70
     0
  9
$PEXTMIN
 10
1.000000000000000E+20
 20
1.000000000000000E+20
 30
1.000000000000000E+20
  9
$PEXTMAX
 10
-1.000000000000000E+20
 20
-1.000000000000000E+20
 30
-1.000000000000000E+20
  9
$PLIMMIN
 10
0.0
 20
0.0
  9
$PLIMMAX
 10
12.0
 20
9.0
  9
$UNITMODE
 70
     0
  9
$VISRETAIN
 70
     0
  9
$PLINEGEN
 70
     1
  9
$PSLTSCALE
 70
     0
  9
$TREEDEPTH
 70
  3020
  9
$PICKSTYLE
 70
     1
  9
$CMLSTYLE
  2
STANDARD
  9
$CMLJUST
 70
     0
  9
$CMLSCALE
 40
1.0
  9
$PROXYGRAPHICS
 70
     0
  9
$MEASUREMENT
 70
     1
  0
ENDSEC
  0
SECTION
  2
CLASSES
  0
CLASS
  1
ACDBDICTIONARYWDFLT
  2
AcDbDictionaryWithDefault
  3
ObjectDBX Classes
 90
        0
280
     0
281
     0
  0
CLASS
  1
XRECORD
  2
AcDbXrecord
  3
AutoCAD 2000
 90
        0
280
     0
281
     0
  0
CLASS
  1
LWPOLYLINE
  2
AcDbPolyline
  3
AutoCAD 2000
 90
        0
280
     0
281
     1
  0
CLASS
  1
HATCH
  2
AcDbHatch
  3
AutoCAD 2000
 90
        0
280
     0
281
     1
  0
CLASS
  1
ACDBPLACEHOLDER
  2
AcDbPlaceHolder
  3
ObjectDBX Classes
 90
        0
280
     0
281
     0
  0
CLASS
  1
LAYOUT
  2
AcDbLayout
  3
ObjectDBX Classes
 90
        0
280
     0
281
     0
  0
ENDSEC
  0
SECTION
  2
TABLES
  0
TABLE
  2
VPORT
  5
8
330
0
100
AcDbSymbolTable
 70
     1
  0
VPORT
  5
29
330
8
100
AcDbSymbolTableRecord
100
AcDbViewportTableRecord
  2
*ACTIVE
 70
     0
 10
0.0
 20
0.0
 11
1.0
 21
1.0
 12
0.0
 22
0.0
 13
0.0
 23
0.0
 14
0.5
 24
0.5
 15
0.5
 25
0.5
 16
0.0
 26
0.0
 36
1.0
 17
-274.8289124960895
 27
-197.625142443899
 37
0.0
 40
454.664709414446
 41
1.434307534771814
 42
50.0
 43
0.0
 44
0.0
 50
0.0
 51
0.0
 71
     0
 72
  1000
 73
     1
 74
     1
 75
     0
 76
     0
 77
     0
 78
     0
  0
ENDTAB
  0
TABLE
  2
LTYPE
  5
5
330
0
100
AcDbSymbolTable
 70
    28
  0
LTYPE
  5
14
330
5
100
AcDbSymbolTableRecord
100
AcDbLinetypeTableRecord
  2
BYBLOCK
 70
     0
  3

 72
    65
 73
     0
 40
0.0
  0
LTYPE
  5
15
330
5
100
AcDbSymbolTableRecord
100
AcDbLinetypeTableRecord
  2
BYLAYER
 70
     0
  3

 72
    65
 73
     0
 40
0.0
  0
LTYPE
  5
16
330
5
100
AcDbSymbolTableRecord
100
AcDbLinetypeTableRecord
  2
CONTINUOUS
 70
     0
  3
Solid line
 72
    65
 73
     0
 40
0.0
  0
LTYPE
  5
2B
330
5
100
AcDbSymbolTableRecord
100
AcDbLinetypeTableRecord
  2
HIDDENX2
 70
     0
  3
CADPAC LINETYPE
 72
    65
 73
     2
 40
4.320987654320959
 49
3.240740740740719
 74
     0
 49
-1.08024691358024
 74
     0
  0
LTYPE
  5
2C
330
5
100
AcDbSymbolTableRecord
100
AcDbLinetypeTableRecord
  2
HIDDEN
 70
     0
  3
CADPAC LINETYPE
 72
    65
 73
     2
 40
3.240740740740719
 49
2.160493827160479
 74
     0
 49
-1.08024691358024
 74
     0
  0
LTYPE
  5
2D
330
5
100
AcDbSymbolTableRecord
100
AcDbLinetypeTableRecord
  2
HIDDEN2
 70
     0
  3
CADPAC LINETYPE
 72
    65
 73
     2
 40
2.700617283950599
 49
1.62037037037036
 74
     0
 49
-1.08024691358024
 74
     0
  0
LTYPE
  5
2E
330
5
100
AcDbSymbolTableRecord
100
AcDbLinetypeTableRecord
  2
DASHED
 70
     0
  3
CADPAC LINETYPE
 72
    65
 73
     2
 40
3.024691358024683
 49
2.160493827160479
 74
     0
 49
-0.8641975308642032
 74
     0
  0
LTYPE
  5
2F
330
5
100
AcDbSymbolTableRecord
100
AcDbLinetypeTableRecord
  2
DASHED2
 70
     0
  3
CADPAC LINETYPE
 72
    65
 73
     2
 40
1.944444444444457
 49
1.296296296296305
 74
     0
 49
-0.6481481481481524
 74
     0
  0
LTYPE
  5
30
330
5
100
AcDbSymbolTableRecord
100
AcDbLinetypeTableRecord
  2
DASHEDX2
 70
     0
  3
CADPAC LINETYPE
 72
    65
 73
     2
 40
5.185185185185219
 49
4.320987654321016
 74
     0
 49
-0.8641975308642032
 74
     0
  0
LTYPE
  5
31
330
5
100
AcDbSymbolTableRecord
100
AcDbLinetypeTableRecord
  2
DOTX2
 70
     0
  3
CADPAC LINETYPE
 72
    65
 73
     2
 40
1.890432098765444
 49
0.0
 74
     0
 49
-1.890432098765444
 74
     0
  0
LTYPE
  5
32
330
5
100
AcDbSymbolTableRecord
100
AcDbLinetypeTableRecord
  2
DOT
 70
     0
  3
CADPAC LINETYPE
 72
    65
 73
     2
 40
1.512345679012356
 49
0.0
 74
     0
 49
-1.512345679012356
 74
     0
  0
LTYPE
  5
33
330
5
100
AcDbSymbolTableRecord
100
AcDbLinetypeTableRecord
  2
DOT2
 70
     0
  3
CADPAC LINETYPE
 72
    65
 73
     2
 40
1.134259259259267
 49
0.0
 74
     0
 49
-1.134259259259267
 74
     0
  0
LTYPE
  5
34
330
5
100
AcDbSymbolTableRecord
100
AcDbLinetypeTableRecord
  2
CENTERX2
 70
     0
  3
CADPAC LINETYPE
 72
    65
 73
     4
 40
6.481481481481438
 49
2.700617283950599
 74
     0
 49
-1.3503086419753
 74
     0
 49
1.08024691358024
 74
     0
 49
-1.3503086419753
 74
     0
  0
LTYPE
  5
35
330
5
100
AcDbSymbolTableRecord
100
AcDbLinetypeTableRecord
  2
CENTER
 70
     0
  3
CADPAC LINETYPE
 72
    65
 73
     4
 40
4.969135802469102
 49
2.160493827160479
 74
     0
 49
-1.08024691358024
 74
     0
 49
0.6481481481481438
 74
     0
 49
-1.08024691358024
 74
     0
  0
LTYPE
  5
36
330
5
100
AcDbSymbolTableRecord
100
AcDbLinetypeTableRecord
  2
CENTER2
 70
     0
  3
CADPAC LINETYPE
 72
    65
 73
     4
 40
3.456790123456767
 49
1.62037037037036
 74
     0
 49
-0.8101851851851798
 74
     0
 49
0.216049382716048
 74
     0
 49
-0.8101851851851798
 74
     0
  0
LTYPE
  5
37
330
5
100
AcDbSymbolTableRecord
100
AcDbLinetypeTableRecord
  2
DASHDOTX2
 70
     0
  3
CADPAC LINETYPE
 72
    65
 73
     4
 40
10.37037037037032
 49
5.18518518518519
 74
     0
 49
-1.728395061728378
 74
     0
 49
1.728395061728378
 74
     0
 49
-1.728395061728378
 74
     0
  0
LTYPE
  5
38
330
5
100
AcDbSymbolTableRecord
100
AcDbLinetypeTableRecord
  2
DASHDOT
 70
     0
  3
CADPAC LINETYPE
 72
    65
 73
     4
 40
5.185185185185219
 49
2.592592592592609
 74
     0
 49
-0.8641975308642032
 74
     0
 49
0.8641975308642032
 74
     0
 49
-0.8641975308642032
 74
     0
  0
LTYPE
  5
39
330
5
100
AcDbSymbolTableRecord
100
AcDbLinetypeTableRecord
  2
DASHDOT2
 70
     0
  3
CADPAC LINETYPE
 72
    65
 73
     4
 40
3.327160493827182
 49
1.944444444444457
 74
     0
 49
-0.6481481481481524
 74
     0
 49
0.0864197530864203
 74
     0
 49
-0.6481481481481524
 74
     0
  0
LTYPE
  5
3A
330
5
100
AcDbSymbolTableRecord
100
AcDbLinetypeTableRecord
  2
DIVIDEX2
 70
     0
  3
CADPAC LINETYPE
 72
    65
 73
     6
 40
13.82716049382708
 49
5.18518518518519
 74
     0
 49
-1.728395061728378
 74
     0
 49
1.728395061728378
 74
     0
 49
-1.728395061728378
 74
     0
 49
1.728395061728378
 74
     0
 49
-1.728395061728378
 74
     0
  0
LTYPE
  5
3B
330
5
100
AcDbSymbolTableRecord
100
AcDbLinetypeTableRecord
  2
DIVIDE
 70
     0
  3
CADPAC LINETYPE
 72
    65
 73
     6
 40
6.913580246913625
 49
2.592592592592609
 74
     0
 49
-0.8641975308642032
 74
     0
 49
0.8641975308642032
 74
     0
 49
-0.8641975308642032
 74
     0
 49
0.8641975308642032
 74
     0
 49
-0.8641975308642032
 74
     0
  0
LTYPE
  5
3C
330
5
100
AcDbSymbolTableRecord
100
AcDbLinetypeTableRecord
  2
DIVIDE2
 70
     0
  3
CADPAC LINETYPE
 72
    65
 73
     6
 40
5.185185185185219
 49
1.944444444444457
 74
     0
 49
-0.6481481481481524
 74
     0
 49
0.6481481481481524
 74
     0
 49
-0.6481481481481524
 74
     0
 49
0.6481481481481524
 74
     0
 49
-0.6481481481481524
 74
     0
  0
LTYPE
  5
3D
330
5
100
AcDbSymbolTableRecord
100
AcDbLinetypeTableRecord
  2
BORDERX2
 70
     0
  3
CADPAC LINETYPE
 72
    65
 73
     6
 40
9.452160493827098
 49
2.700617283950599
 74
     0
 49
-1.3503086419753
 74
     0
 49
2.700617283950599
 74
     0
 49
-1.3503086419753
 74
     0
 49
0.0
 74
     0
 49
-1.3503086419753
 74
     0
  0
LTYPE
  5
3E
330
5
100
AcDbSymbolTableRecord
100
AcDbLinetypeTableRecord
  2
BORDER
 70
     0
  3
CADPAC LINETYPE
 72
    65
 73
     6
 40
7.561728395061678
 49
2.160493827160479
 74
     0
 49
-1.08024691358024
 74
     0
 49
2.160493827160479
 74
     0
 49
-1.08024691358024
 74
     0
 49
0.0
 74
     0
 49
-1.08024691358024
 74
     0
  0
LTYPE
  5
3F
330
5
100
AcDbSymbolTableRecord
100
AcDbLinetypeTableRecord
  2
BORDER2
 70
     0
  3
CADPAC LINETYPE
 72
    65
 73
     6
 40
5.617283950617221
 49
1.728395061728378
 74
     0
 49
-1.080246913580226
 74
     0
 49
0.6481481481481524
 74
     0
 49
-1.080246913580226
 74
     0
 49
0.0
 74
     0
 49
-1.08024691358024
 74
     0
  0
LTYPE
  5
40
330
5
100
AcDbSymbolTableRecord
100
AcDbLinetypeTableRecord
  2
PHANTOMX2
 70
     0
  3
CADPAC LINETYPE
 72
    65
 73
     6
 40
8.101851851851798
 49
2.700617283950599
 74
     0
 49
-1.08024691358024
 74
     0
 49
1.08024691358024
 74
     0
 49
-1.08024691358024
 74
     0
 49
1.08024691358024
 74
     0
 49
-1.08024691358024
 74
     0
  0
LTYPE
  5
41
330
5
100
AcDbSymbolTableRecord
100
AcDbLinetypeTableRecord
  2
PHANTOM
 70
     0
  3
CADPAC LINETYPE
 72
    65
 73
     6
 40
6.697530864197486
 49
2.160493827160479
 74
     0
 49
-1.08024691358024
 74
     0
 49
0.6481481481481438
 74
     0
 49
-1.08024691358024
 74
     0
 49
0.6481481481481438
 74
     0
 49
-1.08024691358024
 74
     0
  0
LTYPE
  5
42
330
5
100
AcDbSymbolTableRecord
100
AcDbLinetypeTableRecord
  2
PHANTOM2
 70
     0
  3
CADPAC LINETYPE
 72
    65
 73
     6
 40
5.725308641975271
 49
1.62037037037036
 74
     0
 49
-1.08024691358024
 74
     0
 49
0.4320987654320959
 74
     0
 49
-1.08024691358024
 74
     0
 49
0.4320987654320959
 74
     0
 49
-1.08024691358024
 74
     0
  0
LTYPE
  5
43
330
5
100
AcDbSymbolTableRecord
100
AcDbLinetypeTableRecord
  2
ACAD_ISO06W100
 70
     0
  3
CADPAC LINETYPE
 72
    65
 73
     8
 40
11.45061728395055
 49
5.18518518518519
 74
     0
 49
-1.080246913580226
 74
     0
 49
0.6481481481481524
 74
     0
 49
-1.080246913580226
 74
     0
 49
0.6481481481481524
 74
     0
 49
-1.080246913580226
 74
     0
 49
0.6481481481481524
 74
     0
 49
-1.080246913580226
 74
     0
  0
LTYPE
  5
44
330
5
100
AcDbSymbolTableRecord
100
AcDbLinetypeTableRecord
  2
ACAD_ISO13W100
 70
     0
  3
CADPAC LINETYPE
 72
    65
 73
     8
 40
8.641975308641918
 49
2.160493827160479
 74
     0
 49
-1.08024691358024
 74
     0
 49
2.160493827160479
 74
     0
 49
-1.08024691358024
 74
     0
 49
0.0
 74
     0
 49
-1.08024691358024
 74
     0
 49
0.0
 74
     0
 49
-1.08024691358024
 74
     0
  0
LTYPE
  5
45
330
5
100
AcDbSymbolTableRecord
100
AcDbLinetypeTableRecord
  2
ACAD_ISO14W100
 70
     0
  3
CADPAC LINETYPE
 72
    65
 73
     8
 40
6.481481481481438
 49
2.160493827160479
 74
     0
 49
-1.08024691358024
 74
     0
 49
0.0
 74
     0
 49
-1.08024691358024
 74
     0
 49
0.0
 74
     0
 49
-1.08024691358024
 74
     0
 49
0.0
 74
     0
 49
-1.08024691358024
 74
     0
  0
ENDTAB
  0
TABLE
  2
LAYER
  5
2
330
0
100
AcDbSymbolTable
 70
     5
  0
LAYER
  5
10
330
2
100
AcDbSymbolTableRecord
100
AcDbLayerTableRecord
  2
0
 70
     0
 62
     7
  6
CONTINUOUS
  0
LAYER
  5
46
330
2
100
AcDbSymbolTableRecord
100
AcDbLayerTableRecord
  2
LAYER0001
 70
     0
 62
     7
  6
CONTINUOUS
  0
LAYER
  5
47
330
2
100
AcDbSymbolTableRecord
100
AcDbLayerTableRecord
  2
LAYER0003
 70
     0
 62
     7
  6
CONTINUOUS
  0
LAYER
  5
48
330
2
100
AcDbSymbolTableRecord
100
AcDbLayerTableRecord
  2
LAYER0009
 70
     0
 62
     7
  6
CONTINUOUS
  0
LAYER
  5
49
330
2
100
AcDbSymbolTableRecord
100
AcDbLayerTableRecord
  2
LAYER0015
 70
     0
 62
     7
  6
CONTINUOUS
  0
ENDTAB
  0
TABLE
  2
STYLE
  5
3
330
0
100
AcDbSymbolTable
 70
     2
  0
STYLE
  5
11
330
3
100
AcDbSymbolTableRecord
100
AcDbTextStyleTableRecord
  2
STANDARD
 70
     0
 40
0.0
 41
1.0
 50
0.0
 71
     0
 42
0.2
  3
txt
  4

  0
STYLE
  5
65
330
3
100
AcDbSymbolTableRecord
100
AcDbTextStyleTableRecord
  2
FDASTYLE0
 70
     0
 40
2.0
 41
0.7999999999999999
 50
0.0
 71
     0
 42
0.2
  3
txt.shx
  4
bigfont
  0
ENDTAB
  0
TABLE
  2
VIEW
  5
6
330
0
100
AcDbSymbolTable
 70
     0
  0
ENDTAB
  0
TABLE
  2
UCS
  5
7
330
0
100
AcDbSymbolTable
 70
     0
  0
ENDTAB
  0
TABLE
  2
APPID
  5
9
330
0
100
AcDbSymbolTable
 70
     2
  0
APPID
  5
12
330
9
100
AcDbSymbolTableRecord
100
AcDbRegAppTableRecord
  2
ACAD
 70
     0
  0
APPID
  5
2A
330
9
100
AcDbSymbolTableRecord
100
AcDbRegAppTableRecord
  2
DAFUSIONOUT
 70
     0
  0
ENDTAB
  0
TABLE
  2
DIMSTYLE
  5
A
330
0
100
AcDbSymbolTable
 70
     1
  0
DIMSTYLE
105
27
330
A
100
AcDbSymbolTableRecord
100
AcDbDimStyleTableRecord
  2
STANDARD
 70
     0
  3

  4

  5

  6

  7

 40
1.0
 41
0.18
 42
0.0625
 43
0.38
 44
0.18
 45
0.0
 46
0.0
 47
0.0
 48
0.0
140
0.18
141
0.09
142
0.0
143
25.4
144
1.0
145
0.0
146
1.0
147
0.09
 71
     0
 72
     0
 73
     1
 74
     1
 75
     0
 76
     0
 77
     0
 78
     0
170
     0
171
     2
172
     0
173
     0
174
     0
175
     0
176
     0
177
     0
178
     0
270
     2
271
     4
272
     4
273
     2
274
     2
340
11
275
     0
280
     0
281
     0
282
     0
283
     1
284
     0
285
     0
286
     0
287
     3
288
     0
  0
ENDTAB
  0
TABLE
  2
BLOCK_RECORD
  5
1
330
0
100
AcDbSymbolTable
 70
     7
  0
BLOCK_RECORD
  5
1F
330
1
100
AcDbSymbolTableRecord
100
AcDbBlockTableRecord
  2
*MODEL_SPACE
  0
BLOCK_RECORD
  5
1B
330
1
100
AcDbSymbolTableRecord
100
AcDbBlockTableRecord
  2
*PAPER_SPACE
  0
BLOCK_RECORD
  5
4B
330
1
100
AcDbSymbolTableRecord
100
AcDbBlockTableRecord
  2
DA_IMAGEDIMGROUP_1
  0
BLOCK_RECORD
  5
4E
330
1
100
AcDbSymbolTableRecord
100
AcDbBlockTableRecord
  2
DA_IMAGEDIMGROUP_2
  0
BLOCK_RECORD
  5
51
330
1
100
AcDbSymbolTableRecord
100
AcDbBlockTableRecord
  2
DA_IMAGEDIMGROUP_3
  0
BLOCK_RECORD
  5
54
330
1
100
AcDbSymbolTableRecord
100
AcDbBlockTableRecord
  2
DA_IMAGEDIMGROUP_4
  0
BLOCK_RECORD
  5
57
330
1
100
AcDbSymbolTableRecord
100
AcDbBlockTableRecord
  2
DA_IMAGEDIMGROUP_5
  0
BLOCK_RECORD
  5
5D
330
1
100
AcDbSymbolTableRecord
100
AcDbBlockTableRecord
  2
_OPEN30
  0
ENDTAB
  0
ENDSEC
  0
SECTION
  2
BLOCKS
  0
BLOCK
  5
20
330
1F
100
AcDbEntity
  8
0
100
AcDbBlockBegin
  2
*MODEL_SPACE
 70
     0
 71
     0
 10
0.0
 20
0.0
 30
0.0
  3
*MODEL_SPACE
  1

  0
ENDBLK
  5
21
330
1F
100
AcDbEntity
  8
0
100
AcDbBlockEnd
  0
BLOCK
  5
1C
330
1B
100
AcDbEntity
 67
     1
  8
0
100
AcDbBlockBegin
  2
*PAPER_SPACE
 70
     0
 71
     0
 10
0.0
 20
0.0
 30
0.0
  3
*PAPER_SPACE
  1

  0
ENDBLK
  5
1D
330
1B
100
AcDbEntity
 67
     1
  8
0
100
AcDbBlockEnd
  0
BLOCK
  5
4C
330
4B
100
AcDbEntity
  8
0
100
AcDbBlockBegin
  2
DA_IMAGEDIMGROUP_1
 70
     0
 71
     0
 10
0.0
 20
0.0
 30
0.0
  3
DA_IMAGEDIMGROUP_1
  1

  0
LINE
  5
5A
330
4B
100
AcDbEntity
  8
0
  6
CONTINUOUS
 62
     9
100
AcDbLine
 10
-4.263422309252137
 20
0.7377347272091583
 30
0.0
 11
-4.263422309252137
 21
-9.101091339410939
 31
0.0
  0
LINE
  5
5B
330
4B
100
AcDbEntity
  8
0
  6
CONTINUOUS
 62
     9
100
AcDbLine
 10
1.736577690747874
 20
4.237734727209201
 30
0.0
 11
1.736577690747874
 21
-9.101091339410939
 31
0.0
  0
LINE
  5
5C
330
4B
100
AcDbEntity
  8
0
  6
CONTINUOUS
 62
     9
100
AcDbLine
 10
-4.263422309252137
 20
-8.601091339410939
 30
0.0
 11
1.736577690747874
 21
-8.601091339410939
 31
0.0
  0
INSERT
  5
63
330
4B
100
AcDbEntity
  8
0
 62
     9
100
AcDbBlockReference
  2
_OPEN30
 10
-4.263422309252137
 20
-8.601091339410939
 30
0.0
 41
1.500001393912182
 42
1.499994636989232
 50
180.0
  0
INSERT
  5
64
330
4B
100
AcDbEntity
  8
0
 62
     9
100
AcDbBlockReference
  2
_OPEN30
 10
1.736577690747874
 20
-8.601091339410939
 30
0.0
 41
1.500001393912182
 42
1.499994636989232
 50
360.0
  0
TEXT
  5
66
330
4B
100
AcDbEntity
  8
0
 62
     7
100
AcDbText
 10
-2.313422309252132
 20
-8.101091339410939
 30
0.0
 40
2.0
  1
6
 41
0.7999999999999999
  7
FDASTYLE0
 72
     5
 11
-0.7134223092521317
 21
-8.101091339410939
 31
0.0
100
AcDbText
  0
ENDBLK
  5
4D
330
4B
100
AcDbEntity
  8
0
100
AcDbBlockEnd
  0
BLOCK
  5
4F
330
4E
100
AcDbEntity
  8
0
100
AcDbBlockBegin
  2
DA_IMAGEDIMGROUP_2
 70
     0
 71
     0
 10
0.0
 20
0.0
 30
0.0
  3
DA_IMAGEDIMGROUP_2
  1

  0
LINE
  5
67
330
4E
100
AcDbEntity
  8
0
  6
CONTINUOUS
 62
     9
100
AcDbLine
 10
4.236577690747867
 20
7.337734727209153
 30
0.0
 11
4.236577690747867
 21
15.95724491584853
 31
0.0
  0
LINE
  5
68
330
4E
100
AcDbEntity
  8
0
  6
CONTINUOUS
 62
     9
100
AcDbLine
 10
6.236577690747867
 20
11.43773472720916
 30
0.0
 11
6.236577690747867
 21
15.95724491584853
 31
0.0
  0
LINE
  5
69
330
4E
100
AcDbEntity
  8
0
  6
CONTINUOUS
 62
     9
100
AcDbLine
 10
4.236577690747867
 20
15.45724491584853
 30
0.0
 11
6.236577690747867
 21
15.45724491584853
 31
0.0
  0
LINE
  5
6A
330
4E
100
AcDbEntity
  8
0
  6
CONTINUOUS
 62
     9
100
AcDbLine
 10
10.28546769074787
 20
15.45724491584853
 30
0.0
 11
6.236577690747867
 21
15.45724491584853
 31
0.0
  0
INSERT
  5
6B
330
4E
100
AcDbEntity
  8
0
 62
     9
100
AcDbBlockReference
  2
_OPEN30
 10
6.236577690747867
 20
15.45724491584853
 30
0.0
 41
1.500001393912182
 42
1.499994636989232
 50
180.0
  0
LINE
  5
6C
330
4E
100
AcDbEntity
  8
0
  6
CONTINUOUS
 62
     9
100
AcDbLine
 10
1.736577690747867
 20
15.45724491584853
 30
0.0
 11
4.236577690747867
 21
15.45724491584853
 31
0.0
  0
INSERT
  5
6D
330
4E
100
AcDbEntity
  8
0
 62
     9
100
AcDbBlockReference
  2
_OPEN30
 10
4.236577690747867
 20
15.45724491584853
 30
0.0
 41
1.500001393912182
 42
1.499994636989232
 50
360.0
  0
TEXT
  5
6E
330
4E
100
AcDbEntity
  8
0
 62
     7
100
AcDbText
 10
8.185467690747867
 20
15.95724491584853
 30
0.0
 40
2.0
  1
2
 41
0.7999999999999998
  7
FDASTYLE0
 72
     5
 11
9.785467690747867
 21
15.95724491584853
 31
0.0
100
AcDbText
  0
ENDBLK
  5
50
330
4E
100
AcDbEntity
  8
0
100
AcDbBlockEnd
  0
BLOCK
  5
52
330
51
100
AcDbEntity
  8
0
100
AcDbBlockBegin
  2
DA_IMAGEDIMGROUP_3
 70
     0
 71
     0
 10
0.0
 20
0.0
 30
0.0
  3
DA_IMAGEDIMGROUP_3
  1

  0
LINE
  5
6F
330
51
100
AcDbEntity
  8
0
  6
CONTINUOUS
 62
     9
100
AcDbLine
 10
2.736577690747867
 20
6.737734727209194
 30
0.0
 11
2.736577690747867
 21
19.50124912342216
 31
0.0
  0
LINE
  5
70
330
51
100
AcDbEntity
  8
0
  6
CONTINUOUS
 62
     9
100
AcDbLine
 10
6.236577690747867
 20
11.93773472720916
 30
0.0
 11
6.236577690747867
 21
19.50124912342216
 31
0.0
  0
LINE
  5
71
330
51
100
AcDbEntity
  8
0
  6
CONTINUOUS
 62
     9
100
AcDbLine
 10
2.736577690747867
 20
19.00124912342216
 30
0.0
 11
6.236577690747867
 21
19.00124912342216
 31
0.0
  0
LINE
  5
72
330
51
100
AcDbEntity
  8
0
  6
CONTINUOUS
 62
     9
100
AcDbLine
 10
13.48546769074787
 20
19.00124912342216
 30
0.0
 11
6.236577690747867
 21
19.00124912342216
 31
0.0
  0
INSERT
  5
73
330
51
100
AcDbEntity
  8
0
 62
     9
100
AcDbBlockReference
  2
_OPEN30
 10
6.236577690747867
 20
19.00124912342216
 30
0.0
 41
1.500001393912182
 42
1.499994636989232
 50
180.0
  0
LINE
  5
74
330
51
100
AcDbEntity
  8
0
  6
CONTINUOUS
 62
     9
100
AcDbLine
 10
0.2365776907478665
 20
19.00124912342216
 30
0.0
 11
2.736577690747867
 21
19.00124912342216
 31
0.0
  0
INSERT
  5
75
330
51
100
AcDbEntity
  8
0
 62
     9
100
AcDbBlockReference
  2
_OPEN30
 10
2.736577690747867
 20
19.00124912342216
 30
0.0
 41
1.500001393912182
 42
1.499994636989232
 50
360.0
  0
TEXT
  5
76
330
51
100
AcDbEntity
  8
0
 62
     7
100
AcDbText
 10
8.185467690747867
 20
19.50124912342216
 30
0.0
 40
2.0
  1
3.5
 41
0.8000000000000002
  7
FDASTYLE0
 72
     5
 11
12.98546769074787
 21
19.50124912342216
 31
0.0
100
AcDbText
  0
ENDBLK
  5
53
330
51
100
AcDbEntity
  8
0
100
AcDbBlockEnd
  0
BLOCK
  5
55
330
54
100
AcDbEntity
  8
0
100
AcDbBlockBegin
  2
DA_IMAGEDIMGROUP_4
 70
     0
 71
     0
 10
0.0
 20
0.0
 30
0.0
  3
DA_IMAGEDIMGROUP_4
  1

  0
LINE
  5
77
330
54
100
AcDbEntity
  8
0
  6
CONTINUOUS
 62
     9
100
AcDbLine
 10
-37.67249671291991
 20
-1.242669930958865
 30
0.0
 11
-29.69102464341646
 21
7.718139385377239
 31
0.0
  0
LINE
  5
78
330
54
100
AcDbEntity
  8
0
  6
CONTINUOUS
 62
     9
100
AcDbLine
 10
-21.65807232045223
 20
16.73674565079762
 30
0.0
 11
-29.69102464341646
 21
7.718139385377239
 31
0.0
  0
INSERT
  5
79
330
54
100
AcDbEntity
  8
0
 62
     9
100
AcDbBlockReference
  2
_OPEN30
 10
-29.69102464341646
 20
7.718139385377239
 30
0.0
 41
1.500001393912182
 42
1.499994636989232
 50
228.3082628228299
  0
LINE
  5
7A
330
54
100
AcDbEntity
  8
0
  6
CONTINUOUS
 62
     9
100
AcDbLine
 10
-39.33530339406646
 20
-3.109505205195556
 30
0.0
 11
-37.67249671291991
 21
-1.242669930958865
 31
0.0
  0
INSERT
  5
7B
330
54
100
AcDbEntity
  8
0
 62
     9
100
AcDbBlockReference
  2
_OPEN30
 10
-37.67249671291991
 20
-1.242669930958865
 30
0.0
 41
1.500001393912182
 42
1.499994636989232
 50
48.30826282282987
  0
TEXT
  5
7C
330
54
100
AcDbEntity
  8
0
 62
     7
100
AcDbText
 10
-28.17185188743757
 20
10.17545768632568
 30
0.0
 40
2.0
  1
φ12
 50
48.3082628228299
 41
0.7499999999999998
  7
FDASTYLE0
 72
     5
 11
-24.97926305963619
 21
13.75978141286012
 31
0.0
100
AcDbText
  0
TEXT
  5
7D
330
54
100
AcDbEntity
  8
0
 62
     7
100
AcDbText
 10
-25.61745606600995
 20
14.99780794190367
 30
0.0
 40
1.3
  1
±0.2
 50
48.3082628228299
 41
0.7619047619047621
  7
FDASTYLE0
 72
     5
 11
-22.85054574858209
 21
18.10422183823352
 31
0.0
100
AcDbText
  0
ENDBLK
  5
56
330
54
100
AcDbEntity
  8
0
100
AcDbBlockEnd
  0
BLOCK
  5
58
330
57
100
AcDbEntity
  8
0
100
AcDbBlockBegin
  2
DA_IMAGEDIMGROUP_5
 70
     0
 71
     0
 10
0.0
 20
0.0
 30
0.0
  3
DA_IMAGEDIMGROUP_5
  1

  0
LINE
  5
7E
330
57
100
AcDbEntity
  8
0
  6
CONTINUOUS
 62
     9
100
AcDbLine
 10
-33.68176067816818
 20
15.52901675698949
 30
0.0
 11
-33.68176067816818
 21
12.73773472720917
 31
0.0
  0
LINE
  5
7F
330
57
100
AcDbEntity
  8
0
  6
CONTINUOUS
 62
     9
100
AcDbLine
 10
-45.97304270794849
 20
3.237734727209188
 30
0.0
 11
-43.18176067816817
 21
3.237734727209187
 31
0.0
  0
ARC
  5
80
330
57
100
AcDbEntity
  8
0
  6
CONTINUOUS
 62
     9
100
AcDbCircle
 10
-33.68176067816818
 20
3.237734727209187
 30
0.0
 40
11.79128202978031
100
AcDbArc
 50
90.0
 51
180.0
  0
INSERT
  5
81
330
57
100
AcDbEntity
  8
0
 62
     9
100
AcDbBlockReference
  2
_OPEN30
 10
-33.68176067816818
 20
15.02901675698949
 30
0.0
 41
1.500001393912182
 42
1.499994636989232
 50
3.644375691473876
  0
INSERT
  5
82
330
57
100
AcDbEntity
  8
0
 62
     9
100
AcDbBlockReference
  2
_OPEN30
 10
-45.47304270794849
 20
3.237734727209188
 30
0.0
 41
1.500001393912182
 42
1.499994636989232
 50
266.3556243085262
  0
TEXT
  5
83
330
57
100
AcDbEntity
  8
0
 62
     7
100
AcDbText
 10
-45.20143667564838
 20
9.100556475197005
 30
0.0
 40
2.0
  1
4-90°
 50
45.0
 41
0.7692307692307694
  7
FDASTYLE0
 72
     5
 11
-39.544582426156
 21
14.75741072468938
 31
0.0
100
AcDbText
  0
ENDBLK
  5
59
330
57
100
AcDbEntity
  8
0
100
AcDbBlockEnd
  0
BLOCK
  5
5E
330
5D
100
AcDbEntity
  8
0
100
AcDbBlockBegin
  2
_OPEN30
 70
     0
 71
     0
 10
0.0
 20
0.0
 30
0.0
  3
_OPEN30
  1

  0
LINE
  5
60
330
5D
100
AcDbEntity
  8
0
  6
BYBLOCK
 62
     0
100
AcDbLine
 10
-1.0
 20
0.267949
 30
0.0
 11
0.0
 21
0.0
 31
0.0
  0
LINE
  5
61
330
5D
100
AcDbEntity
  8
0
  6
BYBLOCK
 62
     0
100
AcDbLine
 10
0.0
 20
0.0
 30
0.0
 11
-1.0
 21
-0.267949
 31
0.0
  0
LINE
  5
62
330
5D
100
AcDbEntity
  8
0
  6
BYBLOCK
 62
     0
100
AcDbLine
 10
0.0
 20
0.0
 30
0.0
 11
-1.0
 21
0.0
 31
0.0
  0
ENDBLK
  5
5F
330
5D
100
AcDbEntity
  8
0
100
AcDbBlockEnd
  0
ENDSEC
  0
SECTION
  2
ENTITIES
  0
LINE
  5
84
330
1F
100
AcDbEntity
  8
0
  6
CENTER
 62
     9
100
AcDbLine
 10
-6.116519820279145
 20
3.237734727209194
 30
0.0
 11
25.43657769074786
 21
3.237734727209194
 31
0.0
  0
LINE
  5
85
330
1F
100
AcDbEntity
  8
0
  6
CENTER
 62
     9
100
AcDbLine
 10
22.53657769074786
 20
12.28021854657858
 30
0.0
 11
22.53657769074786
 21
7.394479287226019
 31
0.0
  0
CIRCLE
  5
86
330
1F
100
AcDbEntity
  8
0
  6
CONTINUOUS
 62
     9
100
AcDbCircle
 10
-27.6817606781682
 20
3.237734727209201
 30
0.0
 40
1.0
  0
CIRCLE
  5
87
330
1F
100
AcDbEntity
  8
0
  6
CONTINUOUS
 62
     9
100
AcDbCircle
 10
-27.6817606781682
 20
3.237734727209201
 30
0.0
 40
1.0
  0
CIRCLE
  5
88
330
1F
100
AcDbEntity
  8
0
  6
CONTINUOUS
 62
     9
100
AcDbCircle
 10
-33.6817606781682
 20
9.237734727209187
 30
0.0
 40
1.0
  0
CIRCLE
  5
89
330
1F
100
AcDbEntity
  8
0
  6
CONTINUOUS
 62
     9
100
AcDbCircle
 10
-33.6817606781682
 20
9.237734727209187
 30
0.0
 40
1.0
  0
CIRCLE
  5
8A
330
1F
100
AcDbEntity
  8
0
  6
CONTINUOUS
 62
     9
100
AcDbCircle
 10
-39.68176067816818
 20
3.237734727209187
 30
0.0
 40
1.0
  0
CIRCLE
  5
8B
330
1F
100
AcDbEntity
  8
0
  6
CONTINUOUS
 62
     9
100
AcDbCircle
 10
-39.68176067816818
 20
3.237734727209187
 30
0.0
 40
1.0
  0
CIRCLE
  5
8C
330
1F
100
AcDbEntity
  8
0
  6
CONTINUOUS
 62
     9
100
AcDbCircle
 10
-33.68176067816818
 20
-2.762265272790813
 30
0.0
 40
1.0
  0
CIRCLE
  5
8D
330
1F
100
AcDbEntity
  8
0
  6
CONTINUOUS
 62
     9
100
AcDbCircle
 10
-33.68176067816818
 20
-2.762265272790813
 30
0.0
 40
1.0
  0
LINE
  5
8E
330
1F
100
AcDbEntity
  8
0
  6
CONTINUOUS
 62
     9
100
AcDbLine
 10
-8.263422309252137
 20
1.237734727209158
 30
0.0
 11
-8.263422309252137
 21
4.737734727209173
 31
0.0
  0
LINE
  5
8F
330
1F
100
AcDbEntity
  8
0
  6
CONTINUOUS
 62
     9
100
AcDbLine
 10
-4.763422309252137
 20
1.237734727209158
 30
0.0
 11
-7.263422309252137
 21
1.237734727209158
 31
0.0
  0
LINE
  5
90
330
1F
100
AcDbEntity
  8
0
  6
CONTINUOUS
 62
     9
100
AcDbLine
 10
-4.763422309252137
 20
4.737734727209173
 30
0.0
 11
-8.763422309252137
 21
4.737734727209173
 31
0.0
  0
LINE
  5
91
330
1F
100
AcDbEntity
  8
0
  6
CONTINUOUS
 62
     9
100
AcDbLine
 10
-12.26342230925214
 20
1.237734727209158
 30
0.0
 11
-12.26342230925214
 21
5.237734727209173
 31
0.0
  0
LINE
  5
92
330
1F
100
AcDbEntity
  8
0
  6
CONTINUOUS
 62
     9
100
AcDbLine
 10
-5.263422309252126
 20
1.237734727209158
 30
0.0
 11
-12.76342230925214
 21
1.237734727209158
 31
0.0
  0
LINE
  5
93
330
1F
100
AcDbEntity
  8
0
  6
CONTINUOUS
 62
     9
100
AcDbLine
 10
1.736577690747867
 20
5.237734727209194
 30
0.0
 11
-12.76342230925214
 21
5.237734727209173
 31
0.0
  0
LINE
  5
94
330
1F
100
AcDbEntity
  8
0
  6
CONTINUOUS
 62
     9
100
AcDbLine
 10
-4.263422309252137
 20
5.237734727209173
 30
0.0
 11
-4.263422309252137
 21
23.24971511220196
 31
0.0
  0
LINE
  5
95
330
1F
100
AcDbEntity
  8
0
  6
CONTINUOUS
 62
     9
100
AcDbLine
 10
6.236577690747867
 20
11.43773472720916
 30
0.0
 11
6.236577690747867
 21
23.24971511220196
 31
0.0
  0
LINE
  5
96
330
1F
100
AcDbEntity
  8
0
  6
CONTINUOUS
 62
     9
100
AcDbLine
 10
6.236577690747867
 20
11.43773472720916
 30
0.0
 11
6.236577690747867
 21
15.73773472720922
 31
0.0
  0
LINE
  5
97
330
1F
100
AcDbEntity
  8
0
  6
CONTINUOUS
 62
     9
100
AcDbLine
 10
24.73657769074787
 20
-4.762265272790842
 30
0.0
 11
34.73657769074787
 21
-4.762265272790842
 31
0.0
  0
LINE
  5
98
330
1F
100
AcDbEntity
  8
0
  6
CONTINUOUS
 62
     9
100
AcDbLine
 10
24.80138783210402
 20
11.23773472720917
 30
0.0
 11
34.73657769074787
 21
11.23773472720917
 31
0.0
  0
LINE
  5
99
330
1F
100
AcDbEntity
  8
0
  6
CONTINUOUS
 62
     9
100
AcDbLine
 10
24.90744979010335
 20
-4.062265272790825
 30
0.0
 11
30.93657769074786
 21
-4.062265272790825
 31
0.0
  0
LINE
  5
9A
330
1F
100
AcDbEntity
  8
0
  6
CONTINUOUS
 62
     9
100
AcDbLine
 10
24.90744979010335
 20
10.53773472720917
 30
0.0
 11
30.93657769074786
 21
10.53773472720917
 31
0.0
  0
LINE
  5
9B
330
1F
100
AcDbEntity
  8
0
  6
CONTINUOUS
 62
     9
100
AcDbLine
 10
-10.11762295081967
 20
-10.76226527279082
 30
0.0
 11
-44.58676067816819
 21
-10.76226527279082
 31
0.0
  0
LINE
  5
9C
330
1F
100
AcDbEntity
  8
0
  6
CONTINUOUS
 62
     9
100
AcDbLine
 10
18.48546769074787
 20
19.00124912342216
 30
0.0
 11
44.84217500782103
 21
19.00124912342216
 31
0.0
  0
LINE
  5
9D
330
1F
100
AcDbEntity
  8
0
  6
CONTINUOUS
 62
     9
100
AcDbLine
 10
24.23657769074785
 20
-4.062265272790825
 30
0.0
 11
24.43657769074786
 21
-4.062265272790825
 31
0.0
  0
LINE
  5
9E
330
1F
100
AcDbEntity
  8
0
  6
CONTINUOUS
 62
     9
100
AcDbLine
 10
24.23657769074787
 20
10.53773472720917
 30
0.0
 11
24.43657769074786
 21
10.53773472720917
 31
0.0
  0
LINE
  5
9F
330
1F
100
AcDbEntity
  8
0
  6
CONTINUOUS
 62
     9
100
AcDbLine
 10
24.43657769074786
 20
10.53773472720917
 30
0.0
 11
24.43657769074786
 21
-4.062265272790825
 31
0.0
  0
LINE
  5
A0
330
1F
100
AcDbEntity
  8
0
  6
CONTINUOUS
 62
     9
100
AcDbLine
 10
24.23657769074787
 20
11.73773472720917
 30
0.0
 11
24.23657769074787
 21
18.34091734229278
 31
0.0
  0
LINE
  5
A1
330
1F
100
AcDbEntity
  8
0
  6
CONTINUOUS
 62
     9
100
AcDbLine
 10
24.23657769074787
 20
21.60878708891183
 30
0.0
 11
24.23657769074787
 21
23.24971511220196
 31
0.0
  0
LINE
  5
A2
330
1F
100
AcDbEntity
  8
0
  6
CONTINUOUS
 62
     9
100
AcDbLine
 10
-40.06012318298119
 20
2.312077223079489
 30
0.0
 11
-44.58676067816819
 21
-10.76226527279082
 31
0.0
  0
INSERT
  5
A3
330
1F
100
AcDbEntity
  8
0
 62
     9
100
AcDbBlockReference
  2
_OPEN30
 10
-40.06012318298119
 20
2.312077223079489
 30
0.0
 41
1.500001393912182
 42
1.499994636989232
 50
70.90297211090984
  0
LINE
  5
A4
330
1F
100
AcDbEntity
  8
0
  6
DASHED2
 62
     9
100
AcDbLine
 10
21.23657769074787
 20
-4.062265272790825
 30
0.0
 11
23.73657769074787
 21
-4.062265272790825
 31
0.0
  0
LINE
  5
A5
330
1F
100
AcDbEntity
  8
0
  6
DASHED2
 62
     9
100
AcDbLine
 10
21.23657769074787
 20
-4.062265272790825
 30
0.0
 11
24.23657769074785
 21
-4.062265272790825
 31
0.0
  0
LINE
  5
A6
330
1F
100
AcDbEntity
  8
0
  6
DASHED2
 62
     9
100
AcDbLine
 10
21.23657769074787
 20
10.53773472720917
 30
0.0
 11
21.23657769074787
 21
-4.062265272790825
 31
0.0
  0
LINE
  5
A7
330
1F
100
AcDbEntity
  8
0
  6
DASHED2
 62
     9
100
AcDbLine
 10
21.83657769074787
 20
10.68773472720916
 30
0.0
 11
21.83657769074787
 21
10.53773472720918
 31
0.0
  0
LINE
  5
A8
330
1F
100
AcDbEntity
  8
0
  6
DASHED2
 62
     9
100
AcDbLine
 10
23.23657769074785
 20
10.68773472720916
 30
0.0
 11
23.23657769074785
 21
10.53773472720918
 31
0.0
  0
LINE
  5
A9
330
1F
100
AcDbEntity
  8
0
  6
DASHED2
 62
     9
100
AcDbLine
 10
21.23657769074787
 20
10.53773472720917
 30
0.0
 11
24.23657769074787
 21
10.53773472720917
 31
0.0
  0
LINE
  5
AA
330
1F
100
AcDbEntity
  8
0
  6
DASHED2
 62
     9
100
AcDbLine
 10
18.63657769074787
 20
0.9277347272091703
 30
0.0
 11
18.63657769074787
 21
5.547734727209175
 31
0.0
  0
LINE
  5
AB
330
1F
100
AcDbEntity
  8
0
  6
DASHED2
 62
     9
100
AcDbLine
 10
18.63657769074787
 20
5.547734727209175
 30
0.0
 11
21.23657769074787
 21
5.547734727209175
 31
0.0
  0
LINE
  5
AC
330
1F
100
AcDbEntity
  8
0
  6
DASHED2
 62
     9
100
AcDbLine
 10
18.63657769074787
 20
0.9277347272091703
 30
0.0
 11
21.23657769074787
 21
0.9277347272091703
 31
0.0
  0
LINE
  5
AD
330
1F
100
AcDbEntity
  8
0
  6
CONTINUOUS
 62
     9
100
AcDbLine
 10
-8.263422309252137
 20
18.65564176916704
 30
0.0
 11
-8.263422309252137
 21
4.737734727209173
 31
0.0
  0
INSERT
  5
AE
330
1F
100
AcDbEntity
  8
0
 62
     9
100
AcDbBlockReference
  2
_OPEN30
 10
-8.263422309252137
 20
4.737734727209173
 30
0.0
 41
1.500001393912182
 42
1.499994636989232
 50
270.0
  0
LINE
  5
AF
330
1F
100
AcDbEntity
  8
0
  6
CONTINUOUS
 62
     9
100
AcDbLine
 10
-8.263422309252137
 20
-1.767498920243315
 30
0.0
 11
-8.263422309252137
 21
1.237734727209158
 31
0.0
  0
INSERT
  5
B0
330
1F
100
AcDbEntity
  8
0
 62
     9
100
AcDbBlockReference
  2
_OPEN30
 10
-8.263422309252137
 20
1.237734727209158
 30
0.0
 41
1.500001393912182
 42
1.499994636989232
 50
90.0
  0
LINE
  5
B1
330
1F
100
AcDbEntity
  8
0
  6
CONTINUOUS
 62
     9
100
AcDbLine
 10
-12.26342230925214
 20
18.65564176916704
 30
0.0
 11
-12.26342230925214
 21
5.237734727209173
 31
0.0
  0
INSERT
  5
B2
330
1F
100
AcDbEntity
  8
0
 62
     9
100
AcDbBlockReference
  2
_OPEN30
 10
-12.26342230925214
 20
5.237734727209173
 30
0.0
 41
1.500001393912182
 42
1.499994636989232
 50
270.0
  0
LINE
  5
B3
330
1F
100
AcDbEntity
  8
0
  6
CONTINUOUS
 62
     9
100
AcDbLine
 10
-12.26342230925214
 20
-1.767498920243315
 30
0.0
 11
-12.26342230925214
 21
1.237734727209158
 31
0.0
  0
INSERT
  5
B4
330
1F
100
AcDbEntity
  8
0
 62
     9
100
AcDbBlockReference
  2
_OPEN30
 10
-12.26342230925214
 20
1.237734727209158
 30
0.0
 41
1.500001393912182
 42
1.499994636989232
 50
90.0
  0
LINE
  5
B5
330
1F
100
AcDbEntity
  8
0
  6
CONTINUOUS
 62
     9
100
AcDbLine
 10
18.48546769074787
 20
19.00124912342216
 30
0.0
 11
22.53657769074786
 21
11.23773472720917
 31
0.0
  0
INSERT
  5
B6
330
1F
100
AcDbEntity
  8
0
 62
     9
100
AcDbBlockReference
  2
_OPEN30
 10
22.53657769074786
 20
11.23773472720917
 30
0.0
 41
1.500001393912182
 42
1.499994636989232
 50
297.5561804185743
  0
LINE
  5
B7
330
1F
100
AcDbEntity
  8
0
  6
CONTINUOUS
 62
     9
100
AcDbLine
 10
-4.263422309252137
 20
22.74971511220196
 30
0.0
 11
6.236577690747867
 21
22.74971511220196
 31
0.0
  0
INSERT
  5
B8
330
1F
100
AcDbEntity
  8
0
 62
     9
100
AcDbBlockReference
  2
_OPEN30
 10
-4.263422309252137
 20
22.74971511220196
 30
0.0
 41
1.500001393912182
 42
1.499994636989232
 50
180.0
  0
INSERT
  5
B9
330
1F
100
AcDbEntity
  8
0
 62
     9
100
AcDbBlockReference
  2
_OPEN30
 10
6.236577690747867
 20
22.74971511220196
 30
0.0
 41
1.500001393912182
 42
1.499994636989232
 50
360.0
  0
LINE
  5
BA
330
1F
100
AcDbEntity
  8
0
  6
CONTINUOUS
 62
     9
100
AcDbLine
 10
6.236577690747867
 20
22.74971511220196
 30
0.0
 11
24.23657769074787
 21
22.74971511220196
 31
0.0
  0
INSERT
  5
BB
330
1F
100
AcDbEntity
  8
0
 62
     9
100
AcDbBlockReference
  2
_OPEN30
 10
6.236577690747867
 20
22.74971511220196
 30
0.0
 41
1.500001393912182
 42
1.499994636989232
 50
180.0
  0
INSERT
  5
BC
330
1F
100
AcDbEntity
  8
0
 62
     9
100
AcDbBlockReference
  2
_OPEN30
 10
24.23657769074787
 20
22.74971511220196
 30
0.0
 41
1.500001393912182
 42
1.499994636989232
 50
360.0
  0
LINE
  5
BD
330
1F
100
AcDbEntity
  8
0
  6
CONTINUOUS
 62
     9
100
AcDbLine
 10
34.23657769074787
 20
-4.762265272790842
 30
0.0
 11
34.23657769074787
 21
11.23773472720917
 31
0.0
  0
INSERT
  5
BE
330
1F
100
AcDbEntity
  8
0
 62
     9
100
AcDbBlockReference
  2
_OPEN30
 10
34.23657769074787
 20
-4.762265272790842
 30
0.0
 41
1.500001393912182
 42
1.499994636989232
 50
270.0
  0
INSERT
  5
BF
330
1F
100
AcDbEntity
  8
0
 62
     9
100
AcDbBlockReference
  2
_OPEN30
 10
34.23657769074787
 20
11.23773472720917
 30
0.0
 41
1.500001393912182
 42
1.499994636989232
 50
90.0
  0
LINE
  5
C0
330
1F
100
AcDbEntity
  8
0
  6
CONTINUOUS
 62
     9
100
AcDbLine
 10
30.23657769074787
 20
-4.062265272790825
 30
0.0
 11
30.23657769074787
 21
10.53773472720917
 31
0.0
  0
INSERT
  5
C1
330
1F
100
AcDbEntity
  8
0
 62
     9
100
AcDbBlockReference
  2
_OPEN30
 10
30.23657769074787
 20
-4.062265272790825
 30
0.0
 41
1.500001393912182
 42
1.499994636989232
 50
270.0
  0
INSERT
  5
C2
330
1F
100
AcDbEntity
  8
0
 62
     9
100
AcDbBlockReference
  2
_OPEN30
 10
30.23657769074787
 20
10.53773472720917
 30
0.0
 41
1.500001393912182
 42
1.499994636989232
 50
90.0
  0
CIRCLE
  5
C3
330
1F
100
AcDbEntity
  8
0
  6
CONTINUOUS
 62
     3
100
AcDbCircle
 10
-27.6817606781682
 20
3.237734727209201
 30
0.0
 40
0.75
  0
CIRCLE
  5
C4
330
1F
100
AcDbEntity
  8
0
  6
CONTINUOUS
 62
     3
100
AcDbCircle
 10
-27.6817606781682
 20
3.237734727209201
 30
0.0
 40
0.75
  0
CIRCLE
  5
C5
330
1F
100
AcDbEntity
  8
0
  6
CONTINUOUS
 62
     3
100
AcDbCircle
 10
-33.68176067816818
 20
3.237734727209187
 30
0.0
 40
7.999999999999986
  0
CIRCLE
  5
C6
330
1F
100
AcDbEntity
  8
0
  6
CONTINUOUS
 62
     3
100
AcDbCircle
 10
-33.68176067816818
 20
3.237734727209187
 30
0.0
 40
7.699999999999974
  0
CIRCLE
  5
C7
330
1F
100
AcDbEntity
  8
0
  6
CONTINUOUS
 62
     3
100
AcDbCircle
 10
-33.68176067816818
 20
3.237734727209187
 30
0.0
 40
3.599999999999966
  0
CIRCLE
  5
C8
330
1F
100
AcDbEntity
  8
0
  6
CONTINUOUS
 62
     3
100
AcDbCircle
 10
-33.68176067816818
 20
3.237734727209187
 30
0.0
 40
3.999999999999972
  0
CIRCLE
  5
C9
330
1F
100
AcDbEntity
  8
0
  6
CONTINUOUS
 62
     3
100
AcDbCircle
 10
-33.6817606781682
 20
9.237734727209187
 30
0.0
 40
0.75
  0
CIRCLE
  5
CA
330
1F
100
AcDbEntity
  8
0
  6
CONTINUOUS
 62
     3
100
AcDbCircle
 10
-33.6817606781682
 20
9.237734727209187
 30
0.0
 40
0.75
  0
CIRCLE
  5
CB
330
1F
100
AcDbEntity
  8
0
  6
CONTINUOUS
 62
     3
100
AcDbCircle
 10
-39.68176067816818
 20
3.237734727209187
 30
0.0
 40
0.75
  0
CIRCLE
  5
CC
330
1F
100
AcDbEntity
  8
0
  6
CONTINUOUS
 62
     3
100
AcDbCircle
 10
-39.68176067816818
 20
3.237734727209187
 30
0.0
 40
0.75
  0
CIRCLE
  5
CD
330
1F
100
AcDbEntity
  8
0
  6
CONTINUOUS
 62
     3
100
AcDbCircle
 10
-33.68176067816818
 20
-2.762265272790813
 30
0.0
 40
0.75
  0
CIRCLE
  5
CE
330
1F
100
AcDbEntity
  8
0
  6
CONTINUOUS
 62
     3
100
AcDbCircle
 10
-33.68176067816818
 20
-2.762265272790813
 30
0.0
 40
0.75
  0
LINE
  5
CF
330
1F
100
AcDbEntity
  8
0
  6
CONTINUOUS
 62
     3
100
AcDbLine
 10
-35.00463633370054
 20
4.737734727209173
 30
0.0
 11
-32.39957634823106
 21
4.737734727209173
 31
0.0
  0
CIRCLE
  5
D0
330
1F
100
AcDbEntity
  8
0
  6
CONTINUOUS
 62
     3
100
AcDbCircle
 10
-33.68176067816818
 20
3.237734727209187
 30
0.0
 40
2.000000000000028
  0
CIRCLE
  5
D1
330
1F
100
AcDbEntity
  8
0
  6
CONTINUOUS
 62
     3
100
AcDbCircle
 10
-33.68176067816818
 20
3.237734727209187
 30
0.0
 40
3.0
  0
LINE
  5
D2
330
1F
100
AcDbEntity
  8
0
  6
CONTINUOUS
 62
     3
100
AcDbLine
 10
4.636577690747872
 20
7.237734727209158
 30
0.0
 11
4.636577690747872
 21
-0.7622652727908559
 31
0.0
  0
LINE
  5
D3
330
1F
100
AcDbEntity
  8
0
  6
CONTINUOUS
 62
     3
100
AcDbLine
 10
2.602603094532308
 20
5.237734727209201
 30
0.0
 11
1.736577690747874
 21
4.737734727209201
 31
0.0
  0
LINE
  5
D4
330
1F
100
AcDbEntity
  8
0
  6
CONTINUOUS
 62
     3
100
AcDbLine
 10
6.536577690747849
 20
11.23773472720917
 30
0.0
 11
24.23657769074787
 21
11.23773472720917
 31
0.0
  0
LINE
  5
D5
330
1F
100
AcDbEntity
  8
0
  6
CONTINUOUS
 62
     3
100
AcDbLine
 10
6.536577690747842
 20
-4.762265272790828
 30
0.0
 11
24.23657769074787
 21
-4.762265272790828
 31
0.0
  0
LINE
  5
D6
330
1F
100
AcDbEntity
  8
0
  6
CONTINUOUS
 62
     3
100
AcDbLine
 10
24.23657769074787
 20
-4.762265272790828
 30
0.0
 11
24.23657769074787
 21
11.23773472720917
 31
0.0
  0
LINE
  5
D7
330
1F
100
AcDbEntity
  8
0
  6
CONTINUOUS
 62
     3
100
AcDbLine
 10
-4.263422309252137
 20
4.737734727209173
 30
0.0
 11
1.736577690747824
 21
4.737734727209173
 31
0.0
  0
LINE
  5
D8
330
1F
100
AcDbEntity
  8
0
  6
CONTINUOUS
 62
     3
100
AcDbLine
 10
-4.263422309252137
 20
1.237734727209158
 30
0.0
 11
-4.263422309252137
 21
4.737734727209173
 31
0.0
  0
LINE
  5
D9
330
1F
100
AcDbEntity
  8
0
  6
CONTINUOUS
 62
     3
100
AcDbLine
 10
2.602603094532258
 20
5.237734727209173
 30
0.0
 11
2.736577690747867
 21
5.237734727209173
 31
0.0
  0
LINE
  5
DA
330
1F
100
AcDbEntity
  8
0
  6
CONTINUOUS
 62
     3
100
AcDbLine
 10
-4.263422309252137
 20
1.237734727209158
 30
0.0
 11
2.736577690747867
 21
1.237734727209158
 31
0.0
  0
LINE
  5
DB
330
1F
100
AcDbEntity
  8
0
  6
CONTINUOUS
 62
     3
100
AcDbLine
 10
6.536577690747849
 20
11.23773472720917
 30
0.0
 11
6.236577690747867
 21
10.93773472720916
 31
0.0
  0
LINE
  5
DC
330
1F
100
AcDbEntity
  8
0
  6
CONTINUOUS
 62
     3
100
AcDbLine
 10
6.236577690747867
 20
-4.462265272790845
 30
0.0
 11
6.236577690747867
 21
10.93773472720916
 31
0.0
  0
LINE
  5
DD
330
1F
100
AcDbEntity
  8
0
  6
CONTINUOUS
 62
     3
100
AcDbLine
 10
6.536577690747842
 20
-4.762265272790828
 30
0.0
 11
6.236577690747867
 21
-4.462265272790845
 31
0.0
  0
LINE
  5
DE
330
1F
100
AcDbEntity
  8
0
  6
CONTINUOUS
 62
     3
100
AcDbLine
 10
4.636577690747872
 20
-0.7622652727908559
 30
0.0
 11
4.236577690747867
 21
-0.3622652727908502
 31
0.0
  0
LINE
  5
DF
330
1F
100
AcDbEntity
  8
0
  6
CONTINUOUS
 62
     3
100
AcDbLine
 10
6.536577690747849
 20
11.23773472720917
 30
0.0
 11
6.536577690747849
 21
-4.762265272790842
 31
0.0
  0
LINE
  5
E0
330
1F
100
AcDbEntity
  8
0
  6
CONTINUOUS
 62
     3
100
AcDbLine
 10
2.736577690747867
 20
6.237734727209194
 30
0.0
 11
2.736577690747867
 21
0.2377347272091939
 31
0.0
  0
LINE
  5
E1
330
1F
100
AcDbEntity
  8
0
  6
CONTINUOUS
 62
     3
100
AcDbLine
 10
4.236577690747867
 20
6.237734727209194
 30
0.0
 11
2.736577690747867
 21
6.237734727209194
 31
0.0
  0
LINE
  5
E2
330
1F
100
AcDbEntity
  8
0
  6
CONTINUOUS
 62
     3
100
AcDbLine
 10
2.736577690747867
 20
0.2377347272091939
 30
0.0
 11
4.236577690747867
 21
0.2377347272091939
 31
0.0
  0
CIRCLE
  5
E3
330
1F
100
AcDbEntity
  8
0
  6
CENTER
 62
     9
100
AcDbCircle
 10
-33.68176067816818
 20
3.237734727209187
 30
0.0
 40
5.999999999999993
  0
LINE
  5
E4
330
1F
100
AcDbEntity
  8
0
  6
CENTER
 62
     9
100
AcDbLine
 10
-24.6817606781682
 20
3.237734727209187
 30
0.0
 11
-42.68176067816817
 21
3.237734727209187
 31
0.0
  0
LINE
  5
E5
330
1F
100
AcDbEntity
  8
0
  6
CENTER
 62
     9
100
AcDbLine
 10
-33.68176067816818
 20
12.23773472720917
 30
0.0
 11
-33.68176067816818
 21
-5.762265272790799
 31
0.0
  0
LINE
  5
E6
330
1F
100
AcDbEntity
  8
0
  6
CONTINUOUS
 62
     9
100
AcDbLine
 10
4.136577690747872
 20
-0.7622652727908559
 30
0.0
 11
-16.76342230925214
 21
-0.7622652727908559
 31
0.0
  0
LINE
  5
E7
330
1F
100
AcDbEntity
  8
0
  6
CONTINUOUS
 62
     9
100
AcDbLine
 10
4.136577690747872
 20
7.237734727209158
 30
0.0
 11
-16.76342230925214
 21
7.237734727209158
 31
0.0
  0
LINE
  5
E8
330
1F
100
AcDbEntity
  8
0
  6
CONTINUOUS
 62
     9
100
AcDbLine
 10
6.236577690747867
 20
-4.962265272790774
 30
0.0
 11
6.236577690747867
 21
-8.762265272790824
 31
0.0
  0
LINE
  5
E9
330
1F
100
AcDbEntity
  8
0
  6
CONTINUOUS
 62
     9
100
AcDbLine
 10
-16.26342230925214
 20
-0.7622652727908559
 30
0.0
 11
-16.26342230925214
 21
7.237734727209158
 31
0.0
  0
INSERT
  5
EA
330
1F
100
AcDbEntity
  8
0
 62
     9
100
AcDbBlockReference
  2
_OPEN30
 10
-16.26342230925214
 20
-0.7622652727908559
 30
0.0
 41
1.500001393912182
 42
1.499994636989232
 50
270.0
  0
INSERT
  5
EB
330
1F
100
AcDbEntity
  8
0
 62
     9
100
AcDbBlockReference
  2
_OPEN30
 10
-16.26342230925214
 20
7.237734727209158
 30
0.0
 41
1.500001393912182
 42
1.499994636989232
 50
90.0
  0
LINE
  5
EC
330
1F
100
AcDbEntity
  8
LAYER0003
  6
CONTINUOUS
 62
     3
100
AcDbLine
 10
6.236577690747867
 20
7.237734727209158
 30
0.0
 11
4.636577690747872
 21
7.237734727209158
 31
0.0
  0
LINE
  5
ED
330
1F
100
AcDbEntity
  8
LAYER0003
  6
CONTINUOUS
 62
     3
100
AcDbLine
 10
4.636577690747872
 20
7.237734727209158
 30
0.0
 11
4.236577690747867
 21
6.837734727209153
 31
0.0
  0
LINE
  5
EE
330
1F
100
AcDbEntity
  8
LAYER0003
  6
CONTINUOUS
 62
     3
100
AcDbLine
 10
4.236577690747867
 20
-0.3622652727908502
 30
0.0
 11
4.236577690747867
 21
6.837734727209153
 31
0.0
  0
LINE
  5
EF
330
1F
100
AcDbEntity
  8
LAYER0003
  6
CONTINUOUS
 62
     3
100
AcDbLine
 10
4.236577690747867
 20
5.237734727209158
 30
0.0
 11
4.236577690747867
 21
6.837734727209153
 31
0.0
  0
LINE
  5
F0
330
1F
100
AcDbEntity
  8
LAYER0003
  6
CONTINUOUS
 62
     3
100
AcDbLine
 10
6.236577690747867
 20
-0.7622652727908417
 30
0.0
 11
4.636577690747872
 21
-0.7622652727908559
 31
0.0
  0
LINE
  5
F1
330
1F
100
AcDbEntity
  8
LAYER0009
  6
DASHED2
 62
     9
100
AcDbLine
 10
23.78657769074785
 20
11.23773472720917
 30
0.0
 11
23.23657769074785
 21
10.68773472720916
 31
0.0
  0
LINE
  5
F2
330
1F
100
AcDbEntity
  8
LAYER0009
  6
DASHED2
 62
     9
100
AcDbLine
 10
21.28657769074784
 20
11.23773472720917
 30
0.0
 11
21.83657769074787
 21
10.68773472720916
 31
0.0
  0
TEXT
  5
F3
330
1F
100
AcDbEntity
  8
0
 62
     7
100
AcDbText
 10
-8.763422309252137
 20
8.303802416738577
 30
0.0
 40
2.0
  1
3.5
 50
90.0
 41
0.8000000000000002
  7
FDASTYLE0
 72
     5
 11
-8.763422309252137
 21
13.10380241673858
 31
0.0
100
AcDbText
  0
TEXT
  5
F4
330
1F
100
AcDbEntity
  8
0
 62
     7
100
AcDbText
 10
-10.33592230925214
 20
13.26380241673859
 30
0.0
 40
1.4
  1
±0.15
 50
90.0
 41
0.7692307692307695
  7
FDASTYLE0
 72
     5
 11
-10.33592230925214
 21
18.86380241673859
 31
0.0
100
AcDbText
  0
TEXT
  5
F5
330
1F
100
AcDbEntity
  8
0
 62
     7
100
AcDbText
 10
-12.76342230925214
 20
8.303802416738577
 30
0.0
 40
2.0
  1
φ4
 50
90.0
 41
0.7272727272727274
  7
FDASTYLE0
 72
     5
 11
-12.76342230925214
 21
11.50380241673858
 31
0.0
100
AcDbText
  0
TEXT
  5
F6
330
1F
100
AcDbEntity
  8
0
 62
     7
100
AcDbText
 10
-14.33592230925214
 20
11.94380241673858
 30
0.0
 40
1.4
  1
+0.005
 50
90.0
 41
0.8
  7
FDASTYLE0
 72
     5
 11
-14.33592230925214
 21
18.66380241673858
 31
0.0
100
AcDbText
  0
TEXT
  5
F7
330
1F
100
AcDbEntity
  8
0
 62
     7
100
AcDbText
 10
-12.66342230925214
 20
11.94380241673858
 30
0.0
 40
1.4
  1
-0.015
 50
90.0
 41
0.8
  7
FDASTYLE0
 72
     5
 11
-12.66342230925214
 21
18.66380241673858
 31
0.0
100
AcDbText
  0
TEXT
  5
F8
330
1F
100
AcDbEntity
  8
0
 62
     7
100
AcDbText
 10
-2.213422309252134
 20
23.24971511220196
 30
0.0
 40
2.0
  1
10.5
 41
0.8
  7
FDASTYLE0
 72
     5
 11
4.186577690747867
 21
23.24971511220196
 31
0.0
100
AcDbText
  0
TEXT
  5
F9
330
1F
100
AcDbEntity
  8
0
 62
     7
100
AcDbText
 10
13.63657769074787
 20
23.24971511220196
 30
0.0
 40
2.0
  1
18
 41
0.8000000000000003
  7
FDASTYLE0
 72
     5
 11
16.83657769074787
 21
23.24971511220196
 31
0.0
100
AcDbText
  0
TEXT
  5
FA
330
1F
100
AcDbEntity
  8
0
 62
     7
100
AcDbText
 10
33.85771719747147
 20
-1.729357873644839
 30
0.0
 40
2.0
  1
φ16
 50
90.0
 41
0.7499999999999996
  7
FDASTYLE0
 72
     5
 11
33.85771719747147
 21
3.070642126355158
 31
0.0
100
AcDbText
  0
TEXT
  5
FB
330
1F
100
AcDbEntity
  8
0
 62
     7
100
AcDbText
 10
32.55771719747148
 20
3.570642126355158
 30
0.0
 40
1.3
  1
±0.2
 50
90.0
 41
0.7619047619047612
  7
FDASTYLE0
 72
     5
 11
32.55771719747148
 21
7.730642126355154
 31
0.0
100
AcDbText
  0
TEXT
  5
FC
330
1F
100
AcDbEntity
  8
0
 62
     7
100
AcDbText
 10
29.61543818402427
 20
-3.930868512433355
 30
0.0
 40
2.0
  1
φ14.6
 50
90.0
 41
0.7692307692307695
  7
FDASTYLE0
 72
     5
 11
29.61543818402427
 21
4.069131487566649
 31
0.0
100
AcDbText
  0
TEXT
  5
FD
330
1F
100
AcDbEntity
  8
0
 62
     7
100
AcDbText
 10
28.31543818402427
 20
4.569131487566649
 30
0.0
 40
1.3
  1
+0.02
 50
90.0
 41
0.7999999999999999
  7
FDASTYLE0
 72
     5
 11
28.31543818402427
 21
9.769131487566648
 31
0.0
100
AcDbText
  0
TEXT
  5
FE
330
1F
100
AcDbEntity
  8
0
 62
     7
100
AcDbText
 10
29.71543818402427
 20
4.569131487566649
 30
0.0
 40
1.3
  1
-0.01
 50
90.0
 41
0.7999999999999999
  7
FDASTYLE0
 72
     5
 11
29.71543818402427
 21
9.769131487566648
 31
0.0
100
AcDbText
  0
TEXT
  5
FF
330
1F
100
AcDbEntity
  8
0
 62
     7
100
AcDbText
 10
-17.01342230925214
 20
-2.186265272790848
 30
0.0
 40
2.0
  1
φ8
 50
90.0
 41
0.7272727272727274
  7
FDASTYLE0
 72
     5
 11
-17.01342230925214
 21
1.013734727209153
 31
0.0
100
AcDbText
  0
TEXT
  5
100
330
1F
100
AcDbEntity
  8
0
 62
     7
100
AcDbText
 10
-18.58592230925213
 20
1.733734727209153
 30
0.0
 40
1.4
  1
+0.005
 50
90.0
 41
0.8
  7
FDASTYLE0
 72
     5
 11
-18.58592230925213
 21
8.453734727209152
 31
0.0
100
AcDbText
  0
TEXT
  5
101
330
1F
100
AcDbEntity
  8
0
 62
     7
100
AcDbText
 10
-16.91342230925213
 20
1.733734727209153
 30
0.0
 40
1.4
  1
-0.030
 50
90.0
 41
0.8
  7
FDASTYLE0
 72
     5
 11
-16.91342230925213
 21
8.453734727209152
 31
0.0
100
AcDbText
  0
TEXT
  5
102
330
1F
100
AcDbEntity
  8
0
 62
     7
100
AcDbText
 10
18.93280949454727
 20
19.46461388340106
 30
0.0
 40
2.0
  1
3-M1.4(P=0.3)×3L
 41
0.7901234567901235
  7
FDASTYLE0
 72
     5
 11
44.53280949454727
 21
19.46461388340106
 31
0.0
100
AcDbText
  0
TEXT
  5
103
330
1F
100
AcDbEntity
  8
0
 62
     7
100
AcDbText
 10
-43.58676067816819
 20
-10.26226527279082
 30
0.0
 40
2.0
  1
4-Ｍ2（Ｐ＝0.4）ＤＥＰＴＨ　３ＭＡＸ
 41
0.7000000000000001
  7
FDASTYLE0
 72
     5
 11
-9.986760678168189
 21
-10.26226527279082
 31
0.0
100
AcDbText
  0
TEXT
  5
104
330
1F
100
AcDbEntity
  8
0
 62
     7
100
AcDbText
 10
26.42546769074786
 20
-19.26290794591162
 30
0.0
 40
1.9
  1
（ＰＩＮＩＯＮ　ＰＯＳＩＴＩＯＮ）
 41
0.6666666666666667
  7
FDASTYLE0
 72
     5
 11
52.26546769074786
 21
-19.26290794591162
 31
0.0
100
AcDbText
  0
LINE
  5
105
330
1F
100
AcDbEntity
  8
LAYER0001
  6
CONTINUOUS
 62
     9
100
AcDbLine
 10
22.53657769074786
 20
-8.762265272790828
 30
0.0
 11
24.43657769074787
 21
-8.762265272790828
 31
0.0
  0
LINE
  5
106
330
1F
100
AcDbEntity
  8
LAYER0001
  6
CONTINUOUS
 62
     9
100
AcDbLine
 10
22.53657769074786
 20
6.894479287226019
 30
0.0
 11
22.53657769074786
 21
-10.26226527279083
 31
0.0
  0
LINE
  5
107
330
1F
100
AcDbEntity
  8
LAYER0001
  6
CONTINUOUS
 62
     9
100
AcDbLine
 10
24.43657769074787
 20
-4.562265272790825
 30
0.0
 11
24.43657769074787
 21
-10.26226527279083
 31
0.0
  0
LINE
  5
108
330
1F
100
AcDbEntity
  8
LAYER0001
  6
CONTINUOUS
 62
     9
100
AcDbLine
 10
21.23657769074787
 20
-12.76226527279083
 30
0.0
 11
24.43657769074787
 21
-12.76226527279083
 31
0.0
  0
LINE
  5
109
330
1F
100
AcDbEntity
  8
LAYER0001
  6
CONTINUOUS
 62
     9
100
AcDbLine
 10
21.23657769074787
 20
-4.403886896597321
 30
0.0
 11
21.23657769074787
 21
-13.26226527279083
 31
0.0
  0
LINE
  5
10A
330
1F
100
AcDbEntity
  8
LAYER0001
  6
CONTINUOUS
 62
     9
100
AcDbLine
 10
24.43657769074787
 20
-5.356775543927341
 30
0.0
 11
24.43657769074787
 21
-13.26226527279083
 31
0.0
  0
LINE
  5
10B
330
1F
100
AcDbEntity
  8
LAYER0001
  6
CONTINUOUS
 62
     9
100
AcDbLine
 10
18.63657769074787
 20
-16.76226527279083
 30
0.0
 11
24.43657769074787
 21
-16.76226527279083
 31
0.0
  0
LINE
  5
10C
330
1F
100
AcDbEntity
  8
LAYER0001
  6
CONTINUOUS
 62
     9
100
AcDbLine
 10
18.63657769074787
 20
0.4277347272091703
 30
0.0
 11
18.63657769074787
 21
-17.26226527279083
 31
0.0
  0
LINE
  5
10D
330
1F
100
AcDbEntity
  8
LAYER0001
  6
CONTINUOUS
 62
     9
100
AcDbLine
 10
24.43657769074787
 20
-5.356775543927341
 30
0.0
 11
24.43657769074787
 21
-16.26226527279083
 31
0.0
  0
LINE
  5
10E
330
1F
100
AcDbEntity
  8
LAYER0001
  6
CONTINUOUS
 62
     9
100
AcDbLine
 10
6.236577690747867
 20
-4.962265272790845
 30
0.0
 11
6.236577690747867
 21
-23.26226527279083
 31
0.0
  0
LINE
  5
10F
330
1F
100
AcDbEntity
  8
LAYER0001
  6
CONTINUOUS
 62
     9
100
AcDbLine
 10
24.43657769074787
 20
-5.356775543927341
 30
0.0
 11
24.43657769074787
 21
-23.26226527279083
 31
0.0
  0
LINE
  5
110
330
1F
100
AcDbEntity
  8
LAYER0001
  6
CONTINUOUS
 62
     9
100
AcDbLine
 10
6.236577690747867
 20
11.43773472720916
 30
0.0
 11
6.236577690747867
 21
14.23773472720917
 31
0.0
  0
LINE
  5
111
330
1F
100
AcDbEntity
  8
LAYER0001
  6
CONTINUOUS
 62
     9
100
AcDbLine
 10
6.236577690747867
 20
-22.76226527279083
 30
0.0
 11
24.43657769074787
 21
-22.76226527279083
 31
0.0
  0
INSERT
  5
112
330
1F
100
AcDbEntity
  8
LAYER0001
 62
     9
100
AcDbBlockReference
  2
_OPEN30
 10
6.236577690747867
 20
-22.76226527279083
 30
0.0
 41
1.500001393912182
 42
1.499994636989232
 50
180.0
  0
INSERT
  5
113
330
1F
100
AcDbEntity
  8
LAYER0001
 62
     9
100
AcDbBlockReference
  2
_OPEN30
 10
24.43657769074787
 20
-22.76226527279083
 30
0.0
 41
1.500001393912182
 42
1.499994636989232
 50
360.0
  0
LINE
  5
114
330
1F
100
AcDbEntity
  8
LAYER0001
  6
CONTINUOUS
 62
     9
100
AcDbLine
 10
42.18546769074787
 20
-8.762265272790828
 30
0.0
 11
24.43657769074787
 21
-8.762265272790828
 31
0.0
  0
INSERT
  5
115
330
1F
100
AcDbEntity
  8
LAYER0001
 62
     9
100
AcDbBlockReference
  2
_OPEN30
 10
24.43657769074787
 20
-8.762265272790828
 30
0.0
 41
1.500001393912182
 42
1.499994636989232
 50
180.0
  0
LINE
  5
116
330
1F
100
AcDbEntity
  8
LAYER0001
  6
CONTINUOUS
 62
     9
100
AcDbLine
 10
20.03657769074786
 20
-8.762265272790828
 30
0.0
 11
22.53657769074786
 21
-8.762265272790828
 31
0.0
  0
INSERT
  5
117
330
1F
100
AcDbEntity
  8
LAYER0001
 62
     9
100
AcDbBlockReference
  2
_OPEN30
 10
22.53657769074786
 20
-8.762265272790828
 30
0.0
 41
1.500001393912182
 42
1.499994636989232
 50
360.0
  0
LINE
  5
118
330
1F
100
AcDbEntity
  8
LAYER0001
  6
CONTINUOUS
 62
     9
100
AcDbLine
 10
33.28546769074787
 20
-12.76226527279083
 30
0.0
 11
24.43657769074787
 21
-12.76226527279083
 31
0.0
  0
INSERT
  5
119
330
1F
100
AcDbEntity
  8
LAYER0001
 62
     9
100
AcDbBlockReference
  2
_OPEN30
 10
24.43657769074787
 20
-12.76226527279083
 30
0.0
 41
1.500001393912182
 42
1.499994636989232
 50
180.0
  0
LINE
  5
11A
330
1F
100
AcDbEntity
  8
LAYER0001
  6
CONTINUOUS
 62
     9
100
AcDbLine
 10
18.73657769074787
 20
-12.76226527279083
 30
0.0
 11
21.23657769074787
 21
-12.76226527279083
 31
0.0
  0
INSERT
  5
11B
330
1F
100
AcDbEntity
  8
LAYER0001
 62
     9
100
AcDbBlockReference
  2
_OPEN30
 10
21.23657769074787
 20
-12.76226527279083
 30
0.0
 41
1.500001393912182
 42
1.499994636989232
 50
360.0
  0
LINE
  5
11C
330
1F
100
AcDbEntity
  8
LAYER0001
  6
CONTINUOUS
 62
     9
100
AcDbLine
 10
37.94546769074788
 20
-16.76226527279083
 30
0.0
 11
24.43657769074787
 21
-16.76226527279083
 31
0.0
  0
INSERT
  5
11D
330
1F
100
AcDbEntity
  8
LAYER0001
 62
     9
100
AcDbBlockReference
  2
_OPEN30
 10
24.43657769074787
 20
-16.76226527279083
 30
0.0
 41
1.500001393912182
 42
1.499994636989232
 50
180.0
  0
LINE
  5
11E
330
1F
100
AcDbEntity
  8
LAYER0001
  6
CONTINUOUS
 62
     9
100
AcDbLine
 10
16.13657769074787
 20
-16.76226527279083
 30
0.0
 11
18.63657769074787
 21
-16.76226527279083
 31
0.0
  0
INSERT
  5
11F
330
1F
100
AcDbEntity
  8
LAYER0001
 62
     9
100
AcDbBlockReference
  2
_OPEN30
 10
18.63657769074787
 20
-16.76226527279083
 30
0.0
 41
1.500001393912182
 42
1.499994636989232
 50
360.0
  0
TEXT
  5
120
330
1F
100
AcDbEntity
  8
LAYER0001
 62
     7
100
AcDbText
 10
26.38546769074787
 20
-8.262265272790828
 30
0.0
 40
2.0
  1
※3-1.9
 41
0.7741935483870965
  7
FDASTYLE0
 72
     5
 11
35.98546769074787
 21
-8.262265272790828
 31
0.0
100
AcDbText
  0
TEXT
  5
121
330
1F
100
AcDbEntity
  8
LAYER0001
 62
     7
100
AcDbText
 10
36.48546769074787
 20
-6.962265272790827
 30
0.0
 40
1.3
  1
±0.05
 41
0.7692307692307697
  7
FDASTYLE0
 72
     5
 11
41.68546769074787
 21
-6.962265272790827
 31
0.0
100
AcDbText
  0
TEXT
  5
122
330
1F
100
AcDbEntity
  8
LAYER0001
 62
     7
100
AcDbText
 10
26.38546769074787
 20
-12.26226527279083
 30
0.0
 40
2.0
  1
※3.2
 41
0.7619047619047621
  7
FDASTYLE0
 72
     5
 11
32.78546769074787
 21
-12.26226527279083
 31
0.0
100
AcDbText
  0
TEXT
  5
123
330
1F
100
AcDbEntity
  8
LAYER0001
 62
     7
100
AcDbText
 10
26.38546769074787
 20
-16.26226527279083
 30
0.0
 40
2.0
  1
※5.8
 41
0.7619047619047621
  7
FDASTYLE0
 72
     5
 11
32.78546769074787
 21
-16.26226527279083
 31
0.0
100
AcDbText
  0
TEXT
  5
124
330
1F
100
AcDbEntity
  8
LAYER0001
 62
     7
100
AcDbText
 10
33.28546769074787
 20
-14.96226527279083
 30
0.0
 40
1.3
  1
±0.1
 41
0.7619047619047624
  7
FDASTYLE0
 72
     5
 11
37.44546769074788
 21
-14.96226527279083
 31
0.0
100
AcDbText
  0
TEXT
  5
125
330
1F
100
AcDbEntity
  8
LAYER0001
 62
     7
100
AcDbText
 10
9.736577690747865
 20
-22.26226527279083
 30
0.0
 40
2.0
  1
※18+0.2
 41
0.7777777777777779
  7
FDASTYLE0
 72
     5
 11
20.93657769074787
 21
-22.26226527279083
 31
0.0
100
AcDbText
  0
TEXT
  5
126
330
1F
100
AcDbEntity
  8
LAYER0001
 62
     7
100
AcDbText
 10
-20.43498624743724
 20
-27.0670111975431
 30
0.0
 40
2.0
  1
※　モータ端面からの寸法　Dimension from motor end face
 41
0.7533632286995515
  7
FDASTYLE0
 72
     5
 11
46.76501375256277
 21
-27.0670111975431
 31
0.0
100
AcDbText
  0
LINE
  5
127
330
1F
100
AcDbEntity
  8
LAYER0015
  6
DASHED2
 62
     9
100
AcDbLine
 10
21.83657768151945
 20
10.68773471798076
 30
0.0
 11
23.23657768151943
 21
10.68773471798076
 31
0.0
  0
LINE
  5
128
330
1F
100
AcDbEntity
  8
LAYER0015
  6
DASHED2
 62
     9
100
AcDbLine
 10
21.83657769074787
 20
8.137734717980777
 30
0.0
 11
21.83657769074787
 21
10.68773471798076
 31
0.0
  0
LINE
  5
129
330
1F
100
AcDbEntity
  8
LAYER0015
  6
DASHED2
 62
     9
100
AcDbLine
 10
23.23657767229099
 20
8.137734717980777
 30
0.0
 11
23.236577672291
 21
10.68773471798076
 31
0.0
  0
LINE
  5
12A
330
1F
100
AcDbEntity
  8
LAYER0015
  6
DASHED2
 62
     9
100
AcDbLine
 10
23.23657768151943
 20
8.137734717980777
 30
0.0
 11
21.83657768151945
 21
8.137734717980777
 31
0.0
  0
LINE
  5
12B
330
1F
100
AcDbEntity
  8
LAYER0015
  6
DASHED2
 62
     9
100
AcDbLine
 10
23.68657768151945
 20
11.13773471798078
 30
0.0
 11
21.38657769997624
 21
11.13773471798078
 31
0.0
  0
POINT
  5
12C
330
1F
100
AcDbEntity
  8
0
  6
CONTINUOUS
 62
     5
100
AcDbPoint
 10
-594.5
 20
-420.5
 30
0.0
  0
INSERT
  5
12D
330
1F
100
AcDbEntity
  8
0
  6
CONTINUOUS
100
AcDbBlockReference
  2
DA_IMAGEDIMGROUP_1
 10
0.0
 20
0.0
 30
0.0
  0
INSERT
  5
12E
330
1F
100
AcDbEntity
  8
0
  6
CONTINUOUS
100
AcDbBlockReference
  2
DA_IMAGEDIMGROUP_2
 10
0.0
 20
0.0
 30
0.0
  0
INSERT
  5
12F
330
1F
100
AcDbEntity
  8
0
  6
CONTINUOUS
100
AcDbBlockReference
  2
DA_IMAGEDIMGROUP_3
 10
0.0
 20
0.0
 30
0.0
  0
INSERT
  5
130
330
1F
100
AcDbEntity
  8
0
  6
CONTINUOUS
100
AcDbBlockReference
  2
DA_IMAGEDIMGROUP_4
 10
0.0
 20
0.0
 30
0.0
  0
INSERT
  5
131
330
1F
100
AcDbEntity
  8
0
  6
CONTINUOUS
100
AcDbBlockReference
  2
DA_IMAGEDIMGROUP_5
 10
0.0
 20
0.0
 30
0.0
  0
VIEWPORT
  5
4A
330
1B
100
AcDbEntity
 67
     1
  8
0
100
AcDbViewport
 10
-272.9539328212927
 20
-197.8751424438991
 30
0.0
 40
1932.276403072244
 41
1338.749145336606
 68
     1
 69
     1
1001
ACAD
1000
MVIEW
1002
{
1070
    16
1010
0.0
1020
0.0
1030
0.0
1010
0.0
1020
0.0
1030
1.0
1040
0.0
1040
1338.749145336606
1040
-272.9539328212927
1040
-197.8751424438991
1040
50.0
1040
0.0
1040
0.0
1070
     0
1070
   100
1070
     0
1070
     1
1070
     0
1070
     0
1070
     0
1070
     0
1040
0.0
1040
0.0
1040
0.0
1040
0.5
1040
0.5
1040
0.0
1040
0.0
1070
     0
1002
{
1002
}
1002
}
  0
ENDSEC
  0
SECTION
  2
OBJECTS
  0
DICTIONARY
  5
C
330
0
100
AcDbDictionary
  3
ACAD_GROUP
350
D
  3
ACAD_LAYOUT
350
1A
  3
ACAD_MLINESTYLE
350
17
  3
ACAD_PLOTSETTINGS
350
19
  3
ACDBHEADERROUNDTRIPXREC
350
132
  0
DICTIONARY
  5
D
102
{ACAD_REACTORS
330
C
102
}
330
C
100
AcDbDictionary
  0
DICTIONARY
  5
1A
102
{ACAD_REACTORS
330
C
102
}
330
C
100
AcDbDictionary
  0
DICTIONARY
  5
17
102
{ACAD_REACTORS
330
C
102
}
330
C
100
AcDbDictionary
  3
STANDARD
350
18
  0
DICTIONARY
  5
19
102
{ACAD_REACTORS
330
C
102
}
330
C
100
AcDbDictionary
  0
DICTIONARY
  5
132
102
{ACAD_REACTORS
330
C
102
}
330
C
100
AcDbDictionary
  3
CEPSNTYPE
350
13B
  3
DIMSTYLEDATA
350
151
  3
FINGERPRINTGUID
350
13C
  3
HYPERLINKBASE
350
135
  3
INSUNITS
350
13A
  3
LAYOUTDICT
350
137
  3
LWETCUNION
350
139
  3
PLOTSETDICT
350
138
  3
PSVPSCALE
350
13E
  3
PUCSBASE
350
141
  3
PUCSORGBACK
350
147
  3
PUCSORGBOTTOM
350
143
  3
PUCSORGFRONT
350
146
  3
PUCSORGLEFT
350
144
  3
PUCSORGRIGHT
350
145
  3
PUCSORGTOP
350
142
  3
PUCSORTHOREF
350
13F
  3
PUCSORTHOVIEW
350
140
  3
STYLESHEET
350
136
  3
TSTACKALIGN
350
133
  3
TSTACKSIZE
350
134
  3
UCSBASE
350
14A
  3
UCSORGBACK
350
150
  3
UCSORGBOTTOM
350
14C
  3
UCSORGFRONT
350
14F
  3
UCSORGLEFT
350
14D
  3
UCSORGRIGHT
350
14E
  3
UCSORGTOP
350
14B
  3
UCSORTHOREF
350
148
  3
UCSORTHOVIEW
350
149
  3
VERSIONGUID
350
13D
  0
MLINESTYLE
  5
18
102
{ACAD_REACTORS
330
17
102
}
330
17
100
AcDbMlineStyle
  2
Standard
 70
     0
  3

 62
   256
 51
90.0
 52
90.0
 71
     2
 49
0.5
 62
   256
  6
BYLAYER
 49
-0.5
 62
   256
  6
BYLAYER
  0
XRECORD
  5
13B
102
{ACAD_REACTORS
330
132
102
}
330
132
100
AcDbXrecord
 90
        0
  0
XRECORD
  5
151
102
{ACAD_REACTORS
330
132
102
}
330
132
100
AcDbXrecord
1000
DSTYLE
1002
{
1070
   171
 70
     2
1070
   143
 40
25.4
1070
   274
 70
     2
1070
    41
 40
1.25
1070
   141
 40
0.09
1070
   271
 70
     4
1070
    43
 40
0.38
1070
    44
 40
0.18
1070
   278
 70
    46
1070
    42
 40
0.0625
1070
   147
 40
0.09
1070
    77
 70
     3
1070
   272
 70
     4
1070
    73
 70
     1
1070
   172
 70
     0
1070
    74
 70
     1
1070
   283
 70
     1
1070
   340
340
11
1070
   140
 40
0.18
1070
   284
 70
     0
1070
    78
 70
     0
1002
}
  0
XRECORD
  5
13C
102
{ACAD_REACTORS
330
132
102
}
330
132
100
AcDbXrecord
  1
{A8E32826-8491-46E7-85CB-7784ABED7CBC}
  0
XRECORD
  5
135
102
{ACAD_REACTORS
330
132
102
}
330
132
100
AcDbXrecord
  1

  0
XRECORD
  5
13A
102
{ACAD_REACTORS
330
132
102
}
330
132
100
AcDbXrecord
 90
        4
  0
XRECORD
  5
137
102
{ACAD_REACTORS
330
132
102
}
330
132
100
AcDbXrecord
340
1A
  0
XRECORD
  5
139
102
{ACAD_REACTORS
330
132
102
}
330
132
100
AcDbXrecord
 90
    10781
  0
XRECORD
  5
138
102
{ACAD_REACTORS
330
132
102
}
330
132
100
AcDbXrecord
340
19
  0
XRECORD
  5
13E
102
{ACAD_REACTORS
330
132
102
}
330
132
100
AcDbXrecord
 40
0.0
  0
XRECORD
  5
141
102
{ACAD_REACTORS
330
132
102
}
330
132
100
AcDbXrecord
340
0
  0
XRECORD
  5
147
102
{ACAD_REACTORS
330
132
102
}
330
132
100
AcDbXrecord
 10
0.0
 20
0.0
 30
0.0
  0
XRECORD
  5
143
102
{ACAD_REACTORS
330
132
102
}
330
132
100
AcDbXrecord
 10
0.0
 20
0.0
 30
0.0
  0
XRECORD
  5
146
102
{ACAD_REACTORS
330
132
102
}
330
132
100
AcDbXrecord
 10
0.0
 20
0.0
 30
0.0
  0
XRECORD
  5
144
102
{ACAD_REACTORS
330
132
102
}
330
132
100
AcDbXrecord
 10
0.0
 20
0.0
 30
0.0
  0
XRECORD
  5
145
102
{ACAD_REACTORS
330
132
102
}
330
132
100
AcDbXrecord
 10
0.0
 20
0.0
 30
0.0
  0
XRECORD
  5
142
102
{ACAD_REACTORS
330
132
102
}
330
132
100
AcDbXrecord
 10
0.0
 20
0.0
 30
0.0
  0
XRECORD
  5
13F
102
{ACAD_REACTORS
330
132
102
}
330
132
100
AcDbXrecord
340
0
  0
XRECORD
  5
140
102
{ACAD_REACTORS
330
132
102
}
330
132
100
AcDbXrecord
 70
     0
  0
XRECORD
  5
136
102
{ACAD_REACTORS
330
132
102
}
330
132
100
AcDbXrecord
  1

  0
XRECORD
  5
133
102
{ACAD_REACTORS
330
132
102
}
330
132
100
AcDbXrecord
 90
        1
  0
XRECORD
  5
134
102
{ACAD_REACTORS
330
132
102
}
330
132
100
AcDbXrecord
 90
       70
  0
XRECORD
  5
14A
102
{ACAD_REACTORS
330
132
102
}
330
132
100
AcDbXrecord
340
0
  0
XRECORD
  5
150
102
{ACAD_REACTORS
330
132
102
}
330
132
100
AcDbXrecord
 10
0.0
 20
0.0
 30
0.0
  0
XRECORD
  5
14C
102
{ACAD_REACTORS
330
132
102
}
330
132
100
AcDbXrecord
 10
0.0
 20
0.0
 30
0.0
  0
XRECORD
  5
14F
102
{ACAD_REACTORS
330
132
102
}
330
132
100
AcDbXrecord
 10
0.0
 20
0.0
 30
0.0
  0
XRECORD
  5
14D
102
{ACAD_REACTORS
330
132
102
}
330
132
100
AcDbXrecord
 10
0.0
 20
0.0
 30
0.0
  0
XRECORD
  5
14E
102
{ACAD_REACTORS
330
132
102
}
330
132
100
AcDbXrecord
 10
0.0
 20
0.0
 30
0.0
  0
XRECORD
  5
14B
102
{ACAD_REACTORS
330
132
102
}
330
132
100
AcDbXrecord
 10
0.0
 20
0.0
 30
0.0
  0
XRECORD
  5
148
102
{ACAD_REACTORS
330
132
102
}
330
132
100
AcDbXrecord
340
0
  0
XRECORD
  5
149
102
{ACAD_REACTORS
330
132
102
}
330
132
100
AcDbXrecord
 70
     0
  0
XRECORD
  5
13D
102
{ACAD_REACTORS
330
132
102
}
330
132
100
AcDbXrecord
  1
{FAEB1C32-E019-11D5-929B-00C0DF256EC4}
  0
ENDSEC
  0
EOF
